PrimaNota.ru - самый крупный в мире бесплатный архив песенных текстов, аккордов, табулатур и нот


William Ackerman - Barbara's Song - аккорды и текст, видео

Регистрация Запомнить меня
Войти через:  Facebook Google Twitter Vk Yandex Mail.ru

William Ackerman - Barbara's Song - аккорды и текст, видео

Печатать
Просмотров: 36
Barbara's Song
William Ackerman
tuning low to high: [C#G#C#G#C#E]

ower your  string so that the third fret matches the
high E string open. After that match the twelfth fret Harm. 
to the 7th fret harm of the  string. 
then the 7th fret harm of the  string to the 5th of the  string. 
then repeat (except for the and E part)

Intro:
E---12--12-----7----------------7--------
C#--12--12--5--7---------12--5--7--------
G#--12--12--5--7--12--0--12--5--7--5-----]
C#--12--12--5--7--12--0--12--5--7--5--12-] These are all harmonics.
G#--12--12--5--7--12--0--12--5--7--5--12-
C#--12--12--5--7--12--0--12--5--7--5--12-]
        d   u
d=downstroke
u=upstroke
                                 
E---12---12--11---11--11h12p11-9----11-7---0--5-----5h7-----4-----4-
C#------0--------0-----------------0------0-------0-------0-----0---
G#-----0--------0-----------------0------0------0-------0-----0-----
C#--12-------10----------------8-------7------5-----5-------0-------
G#------------------------------------------------------------------
C#------------------------------------------------------------------]
**                               Rereat x3

E---0----0-
C#-----0---]
G#----0----]START AT **
C#--3------
G#---------
C#---------]

On the second time through, 
on the repeat of the [XX0004] arpegio play

E---4h5p4-0---0-0h4-----4--4---4--4---4--4h5--0--0---0-0h2---2--2--2-2--2sl4
C#-----------0--------0-------0------0--------------0-------0-----0----0---
G#----------0-------0--------0------0--------------0-------0-----0----0----
C#--------3-----3----------3------3------3-------1-----1--------1----1-----
G#-------------------------------------------------------------------------
C#-------------------------------------------------------------------------0]

[E------4-4----4-4---0--0]REPEAT ALL [---------0------0----0-]
[C#----0------0-----0--0-             -----------2--22-0-----
G#---0------0-----0--0--              -------1-----------1---
C#--0------0-----0--3---              -----0------------0----
G#----------------------              --01----------1111-----
C#-------0------0-------              -----------------------]
Добавлено: 05.08.2015
Другие материалы по этой песне:
  • Аккорды и текст

Страница создана 05.08.2015
http://primanota.ru/william-ackerman/barbaras-song-chords.htm
Привет, Гость.
Предлагаем пройти революционный курс по гитаре.
Подарок от PrimaNota.Ru, забирай!