PrimaNota.ru - самый крупный в мире бесплатный архив песенных текстов, аккордов, табулатур и нот


Willamette Stone - I Want What You Have - аккорды и текст, видео

Регистрация Запомнить меня
Войти через:  Facebook Google Twitter Vk Yandex Mail.ru

Willamette Stone - I Want What You Have - аккорды и текст, видео

Печатать
Просмотров: 614
Уроки эстрадного вокала в Санкт-Петербурге
I Want What You Have
Willamette Stone
-------------------------------------------------------------------------------
I Want What You Have - Willamette 
Stone (if i stay)
-------------------------------------------------------------------------------
Tabbed by: Taylor Cyr[my first tab]
E-mail:
Michaelcyr79@yahoo.com
Tuning:standard

Intro:
              A#          A#  A#
e|------------6-----------6---6-------------------------------------------------|
B|------------6-----------6---6------------------------------------------------|
G|------------7-----------7---7----------------------------------------------|
D|------------8-----------8---8-----------------------------------------------|
A|------------8-----------8---8-------------------------------------------------|
E|----4/6--6--6---4/6--6--6---6-------------------------------------------------------| x4 (repeat until chorus)

Chorus:
      A#               D#
e|----6----------------6-------------------------------------------------------|
B|----6----------------8-------------------------------------------------------|
G|----7----------------8-------------------------------------------------------|
D|----8----------------8-------------------------------------------------------|
A|----8----------------6-------------------------------------------------------|
E|----6----(x16)-------6---(x16)--------------------------------------------------------|

Bridge:
       C5           D#
e|-----3-------------6---------------------------------------------------------|
B|-----3-------------8-------------------------------------------------------|
G|-----5-------------8--------------------------------------------------------|
D|-----5-------------8--------------------------------------------------------|
A|-----3-------------6---------------------------------------------------------|
E|-----3---(x16)-----6--(x16)----------------------------------------------------------| (x2)

e|---------------------------------------------------------------------------|
B|---------------------------------------------------------------------------|
G|---------------------------------------------------------------------------|
D|---------------------------------------------------------------------------|
A|---------------------------------------------------------------------------|
E|---------------------------------------------------------------------------|

e|---------------------------------------------------------------------------|
B|---------------------------------------------------------------------------|
G|---------------------------------------------------------------------------|
D|---------------------------------------------------------------------------|
A|---------------------------------------------------------------------------|
E|---------------------------------------------------------------------------|

e|---------------------------------------------------------------------------|
B|---------------------------------------------------------------------------|
G|---------------------------------------------------------------------------|
D|---------------------------------------------------------------------------|
A|---------------------------------------------------------------------------|
E|---------------------------------------------------------------------------|

e|---------------------------------------------------------------------------|
B|---------------------------------------------------------------------------|
G|---------------------------------------------------------------------------|
D|---------------------------------------------------------------------------|
A|---------------------------------------------------------------------------|
E|---------------------------------------------------------------------------|

e|---------------------------------------------------------------------------|
B|---------------------------------------------------------------------------|
G|---------------------------------------------------------------------------|
D|---------------------------------------------------------------------------|
A|---------------------------------------------------------------------------|
E|---------------------------------------------------------------------------|


************************************

| /   slide up
| \   slide down
| h   hammer-on
| p   pull-off
| ~   vibrato
| +   harmonic
| x   Mute note
| b   Bend
| pb  Pre-bend
| br  Bend release
| pbr Pre-bend release
| brb Bend release bend

************************************
Добавлено: 09.11.2014
Другие материалы по этой песне:
  • Аккорды и текст

Страница создана 05.11.2014
http://primanota.ru/willamette-stone/i-want-what-you-have-chords.htm
Привет, Гость.
Предлагаем пройти революционный курс по гитаре.
Подарок от PrimaNota.Ru, забирай!