PrimaNota.ru - самый крупный в мире бесплатный архив песенных текстов, аккордов, табулатур и нот


Will Robert - City Lights - таба, видео

Регистрация Запомнить меня
Войти через:  Facebook Google Twitter Vk Yandex Mail.ru

Will Robert - City Lights - таба, видео

Печатать
Просмотров: 62
City Lights - Will Robert
Tuning: DADGae
Capo 3 (F)

Intro: (x3)
e|---------0-----0-------0---|---------0-----0-------0---|
a|---------------------0-----|---------------------0-----|
G|---------------------------|---------------------------|
D|-----0h2---2h4-----0-------|-----0h2---2h4-------------|
A|-----------------2---------|-------------------5-------|
E|---------------------------|-----------------5---------|

Fourth Time
e|---------0-----0-------0---|---------0-----0-------0----------0-----0-|
a|---------------------0-----|---------------------0----------0---------|
G|---------------------------|------------------------------0-------0---|
D|-----0h2---2h4-----0-------|-----0h2---2h4----------------------------|
A|-----------------2---------|-------------------5--------5-------------|
E|---------------------------|-----------------5--------5---------------|


Play Intro again


So take your hands,
and thaw them out,
this will bite,
as the wind shouts...


Pre-Chorus: (x2)
e|----------0------------0-------------0-0----------------|
a|----------0------------0-------------0-0----------------|
G|----------2------------0-------------0-0----------------|
D|----------0------------7-------------0-0----------------|
A|-----2-----------------0-------------5-5----------------|
E|--------------------7------------5----------------------|


You seem so bold but a cold wind blows inside you,
You seem so bold but a cold wind blows inside...


[TURN GUITAR FACE UP]

('D' indicates Where you should beat on the guitar with the heel of your palm)
('S' indicates where you should beat the side of the guitar with your palm)

e|------D-D-0----|------D-D---S--||------D-D-0----|------D-D-0-S--||
a|------D-D-0----|------D-D---S--||------D-D-0----|------D-D-0-S--||
G|------D-D-0-9--|------D-D---S--||------D-D-0-12-|------D-D-0-S--||
D|------D-D-0----|------D-D---S--||------D-D-0----|------D-D-0-S--||
A|---0h9D-D------|---0h9D-D---S--||---0h7D-D------|---0h7D-D---S--||
E|---0h9D-D------|---0h9D-D---S--||---0h7D-D------|---0h7D-D---S--||

e|------D-D-0----|------D-D---S--||------D-D-0----|------D-D-0-S--||
a|------D-D-0----|------D-D---S--||------D-D-0----|------D-D-0-S--||
G|------D-D-0-9--|------D-D---S--||------D-D-0-12-|------D-D-0-S--||
D|------D-D-0----|------D-D---S--||------D-D-0----|------D-D-0-S--||
A|---0h5D-D------|---0h5D-D---S--||---0h7D-D------|---0h7D-D---S--||
E|---0h5D-D------|---0h5D-D---S--||---0h7D-D------|---0h7D-D---S--||

And it's harder than it looked,
this road that we took,
I can feel the ice,
breaking under foot,
we won't turn around,
'cause there's hope in your eyes,
I can hear the sounds,
turning in the tide...


Oh woah woaaaah
Oh woah waaaaoh
Oh woah waaaaoh-oh
Oh woaoh...

So steal me away,
from this place and the city lights,
and hope for a little while we can float,
alone out there, not a lonely boat insight,
no mind,
no mind....


Oh woah woaaaah
Oh woah waaaaoh
Oh woah waaaaoh-oh
Oh woaoh...


And it's harder than it looked,
this road that we took,
I can feel the ice,
breaking under foot,
we won't turn around,
'cause there's hope in your eyes,
I can hear the sounds,
turning in the tide...


You seem so bold but a cold wind blows inside you,
You seem so bold but a cold wind blows inside...

So steal me away,
from this place and the city lights,
and hope for a little while we can float,
alone out there, not a lonely boat insight,
no mind,
no mind....
Добавлено: 23.12.2015
Другие материалы по этой песне:
  • Аккорды и текст

Страница создана 23.12.2015
http://primanota.ru/will-robert/city-lights-chords.htm
Привет, Гость.
Предлагаем пройти революционный курс по гитаре.
Подарок от PrimaNota.Ru, забирай!