PrimaNota.ru - самый крупный в мире бесплатный архив песенных текстов, аккордов, табулатур и нот


Will-i-am - Color - таба, видео

Регистрация Запомнить меня
Войти через:  Facebook Google Twitter Vk Yandex Mail.ru

Will-i-am - Color - таба, видео

Печатать
Просмотров: 105
http://will-i-am.blackeyedpeas.com/

-------------------------------------------------------------------------------
			                        Color - Will-I-Am  
-------------------------------------------------------------------------------
Freedom Writers Soundtrack

Tabbed by: Vangogh161
Tuning: Standard

[Gtr1] = acoustic
[Gtr2] = Electric (clean)



[Gtr1]
e|-----------------------------|-----------------------------|
B|------2----2-----------------|-----------------------------|
G|--------3----3-----6----6----|-----1----1-------5----5-----|  3x
D|---------------------6----6--|-------3----3-------6----6---|
A|---1------------4------------|-----------------------------|
E|-----------------------------|--1------------4-------------|

e|-----------------------------|
B|-----------------------------|
G|------5----5-------5----5----|
D|--------4----4-------4----4--|
A|-----------------------------|
E|---4------------5------------|

e|-----------------------------|-----------------------------|
B|------2----2-----------------|-----------------------------|
G|--------3----3-----6----6----|-----1----1-------5----5-----|  3x
D|---------------------6----6--|-------3----3-------6----6---|
A|---1------------4------------|-----------------------------|
E|-----------------------------|--1------------4-------------|

e|-----------------------------|
B|-----------------------------|
G|------5----5-------5----5----|
D|--------4----4-------4----4--|
A|-----------------------------|
E|---4------------5------------|



[Gtr2]
e|-----------------------------|-----------------------------|
B|-----------------------------|-----------------------------|
G|-----------------------------|-----------------------------|
D|------------15--15h-16---15--|-----------------------------|
A|--13---16--------------------|---16----15\----8----11------|
E|-----------------------------|-----------------------------|

e|-----------------------------|-----------------------------|
B|-----------------------------|-----------------------------|
G|-----------------------------|-----------------------------|
D|---------15--13--------------|-----------------------------|
A|-13--16---------13b16--13b15r|13---------------------------|
E|-----------------------------|-----14----13----13----------|

e|-----------------------------|-----------------------------|
B|-----------------------------|-----------------------------|
G|-----------------------------|-----------------------------|
D|------------15--15h-16---15--|-----------------------------|
A|--13---16--------------------|---16----15\----8----11------|
E|-----------------------------|-----------------------------|

e|-----------------------------|-----------------------------|
B|-----------------------------|-----------------------------|
G|-----------------------------|-----------------------------|
D|------------15--13-----------|-----------------------------|
A|--13---16------------16---15-|(12)h13b15--13---------------|
E|-----------------------------|----------------14--13-------|



[Gtr1]
e|-----------------------------|-----------------------------|
B|------2----2-----------------|-----------------------------|
G|--------3----3-----6----6----|-----1----1-------5----5-----|  2x
D|---------------------6----6--|-------3----3-------6----6---|
A|---1------------4------------|-----------------------------|
E|-----------------------------|--1------------4-------------|

e|-----------------------------|
B|------2----2-----------------|
G|--------3----3-----6----6----|
D|---------------------6----6--|
A|---1------------4------------|
E|-----------------------------|


[break]


e|-----------------------------|-----------------------------|
B|------2----2-----------------|-----------------------------|
G|--------3----3-----6----6----|-----1----1-------5----5-----|  
D|---------------------6----6--|-------3----3-------6----6---|
A|---1------------4------------|-----------------------------|
E|-----------------------------|--1------------4-------------|

e|-----------------------------|
B|-----------------------------|
G|------5----5-------5----5----|
D|--------4----4-------4----4--|
A|-----------------------------|
E|---4------------5------------|

[Gtr1 (first line) + Gtr2 (second line)]
                                
                       A#m       G#         F#        F            
e|--------------------|6---------4---------|2---------1---------|
B|--------------------|6---------4---------|2---------1---------|
G|--------------------|6---------5---------|3---------2---------|
D|--------------------|8---------6---------|4---------3---------|
A|--------------------|8---------6---------|4---------3---------|
E|--------------------|6---------4---------|2---------1---------|

e|---------66666666666|66666666666444444444|22222222222111111111| (tremelo picking)
B|--------------------|--------------------|--------------------|
G|--------------------|--------------------|--------------------|
D|--------------------|--------------------|--------------------|
A|--------------------|--------------------|--------------------|
E|--------------------|--------------------|--------------------|

   

  A#m                            F    G#          
e|6-------------------|----------1----4----|
B|6-------------------|----------1----4----|
G|6-------------------|----------2----5----|
D|8-------------------|----------3----6----|
A|8-------------------|----------3----6----|
E|6-------------------|----------1----4----|
   
e|--------------------|--------------------|
B|--------------------|--------------------|
G|--------------------|--------------------|
D|--------------------|--------------------|
A|--------------------|--------------------|
E|--------------------|--------------------|


                       A#m       G#         F#        F            
e|--------------------|6---------4---------|2---------1---------|
B|--------------------|6---------4---------|2---------1---------|
G|--------------------|6---------5---------|3---------2---------|
D|--------------------|8---------6---------|4---------3---------|
A|--------------------|8---------6---------|4---------3---------|
E|--------------------|6---------4---------|2---------1---------|

e|--------------666666|66666666666444444444|22222222222111111111| (tremelo picking)
B|--------------------|--------------------|--------------------|
G|--------------------|--------------------|--------------------|
D|--------------------|--------------------|--------------------|
A|--------------------|--------------------|--------------------|
E|--------------------|--------------------|--------------------|


[Gtr1]
e|-----------------------------|-----------------------------|
B|------2----2-----------------|-----------------------------|
G|--------3----3-----6----6----|-----1----1-------5----5-----|  5x
D|---------------------6----6--|-------3----3-------6----6---|
A|---1------------4------------|-----------------------------|
E|-----------------------------|--1------------4-------------|

e|-----------------------------|
B|-----------------------------|
G|------5----5-------5----5----|
D|--------4----4-------4----4--|
A|-----------------------------|
E|---4------------5------------|


Добавлено: 30.08.2013
Другие материалы по этой песне:
  • Аккорды и текст

Страница создана 30.08.2013
http://primanota.ru/will-i-am-2/color-chords.htm
Привет, Гость.
Предлагаем пройти революционный курс по гитаре.
Подарок от PrimaNota.Ru, забирай!