PrimaNota.ru - самый крупный в мире бесплатный архив песенных текстов, аккордов, табулатур и нот


Will Ackerman - Processional - таба, видео

Регистрация Запомнить меня
Войти через:  Facebook Google Twitter Vk Yandex Mail.ru

Will Ackerman - Processional - таба, видео

Печатать
Просмотров: 46
Processional

by William Ackerman
 
From the 'Passage' album
 
Standard tuning. Capo 5th fret.
 
Key: \ = slide down    / = slide up
     h = hammer-on     p = pull-off
 
This is how I play it. Any improvements are more
than welcome. Thanks.
 
1
 
E|---0---------------------------3-------------0---|
B|---0-------------3-------------0-------------0---|
G|---0-------------0-------------0-------------2---|
D|---2-------------2-------------2-------------2---|
A|---2-------------3-------------2-------------0---|
E|---0----0---0---------0---0----0----0---0--------|
 
2
|---------------0-------0--------------------------|
|-----------0----------------------0------------0--|
|--------0---------------------0------------0------|
|-----2-------------2-------2------------2---------|
|--------------------------------------------------|
|--0------------0-------0-------------0------------|

repeat bar 1 then:
 
3
|----------------0-------0-------------------0-----|
|------------0---------------------0------------3--|
|---------0---------------------0------------------|
|------2-------------2-------2------------2--------|
|--------------------------------------------------|
|---0------------0-------0-------------0-----------|
 
4
 
|--------------------------------------------------|
|----0---------0---1-----------------3--------3----|
|*----------4--------------0h2-------------0-------|
|*-------2-------------2---------2------2----------|
|----0-------------0-------0---------0-------------|
|--------------------------------------------------|
 
5
 
|---------0-------|--------------------------------|
|--1---------3----|--0---------0---1---------------|
|----------------*|---------4--------------2h4p2p0-|
|------2---------*|------2-------------2-----------|
|--0--------------|--0-------------0-------0-------|
|-----------------|--------------------------------|
 
6
 
|--------------------------------------------------|
|------------0--1----------1-------------0--1------|
|--0------0--------4---0-------2------2--------4---|
|------2---------------------------2---------------|
|--3-------------------3-------0-------------------|
|--------------------------------------------------|
 
7
 
|---------------------0-------------0--------------|
|-----------------0-------------0-------------0----|
|--2-----------2-------------2-------------2-------|
|-----2-----2-------------2-------------2----------|
|--------0------------0-------------0--------------|
|--------------------------------------------------|

repeat all again from beginning, then:
 
8                   9
 
|---0-------------|------------------0-------------|
|-------------0---|----8--\--3-/-5-------------0---|
|----------0------|*------------------------0------|
|-------2---------|*---5--\--------------2---------|
|---0-------------|----------2-/-3---3-------------|
|-----------------|--------------------------------|
 
10
 
|---0-------------0--------------|-----------------|
|-------------0-------------0----|---7----------3--|
|----------0-------------0------*|----------0------|
|-------2-------------2---------*|---0-------------|
|---3-------------3--------------|-------7------2--|
|--------------------------------|-----------------|
 
11
 
|---------------------------------------------0----|
|---1---------0---1---------0---1---------0--------|
|----------0-------------0-------------0-----------|
|-------2-------------2-------------2--------------|
|---0-------------0-------------0-------------3----|
|--------------------------------------------------|
 
12
 
|--------------------------------------------------|
|--------3---0---------0--1------------------------|
|-----0-------------0--------4--0---------------0--|
|--2-------------2-----------------2---------2-----|
|------------2----------------------------2--------|
|--------------------------------------0-----------|
 
13
 
|---0-------------|
|-------------0---|   repeat from bar 9 to end of
|-----------------|   bar 12, then repeat all again
|----------2------|   the same though slowing down
|-------2---------|   from bar 11.
|---0-------------|   Finish with Em chord.
 

james_calton@yahoo.com     Sheffield, England, 2003

________________________________________________________________________________
     
Добавлено: 03.11.2013
Другие материалы по этой песне:
  • Аккорды и текст

Страница создана 28.09.2013
http://primanota.ru/will-ackerman/processional-chords.htm
Привет, Гость.
Предлагаем пройти революционный курс по гитаре.
Подарок от PrimaNota.Ru, забирай!