PrimaNota.ru - самый крупный в мире бесплатный архив песенных текстов, аккордов, табулатур и нот


Will Ackerman - Passage - таба, видео

Регистрация Запомнить меня
Войти через:  Facebook Google Twitter Vk Yandex Mail.ru

Will Ackerman - Passage - таба, видео

Печатать
Просмотров: 87
'Passage' by William Ackerman
From the album of the same name.
Tuning CGCGAE     Capo 2nd fret
 
Key: h = hammer-on   p = pull-off
     / = slide to note    r = roll

Take this tab as an approximation and by no means
as gospel. I use a poor quality CD player and have
difficulty hearing the more subtle parts of this
delicate piece; but it should give an idea of what
Mr Ackerman is doing. Your fingers will probably
add bits that I couldn't hear but which make it
sound better. I also apologise for the lack of
structure in this tab but I haven't the will to
break it down properly. It is usable nonetheless.
 
Section A:
                                *
E|-------------------------------------0-------0--|
A|------------------0--------0---0h3-------5------|
G|*-----------------------0-----------------------|
C|*---2h4---4---0------0---------------0----------|
G|----4-----2-------------------------------------|
C|------------------5------------5----------------|
 
|---0h5--------0-------------------------------|
|--------------0-------------0-------------0---|
|-----------0-------------0-------------0------|
|--------0-------------0-------------0---------|
|----------------------------------------------|
|---5--------------5-------------5-------------|
 
|--------0-------0---0h5--------0---------------|
|--0h3-------5------------------0-----------0---|
|----------------------------0-----------0-----*|
|--------0----------------0-----------0--------*|
|-----------------------------------------------|
|--5-----------------5-------------5------------|

Section B:
|----------------------------------------|
|---------------0--------0-----------0---|
|*--------------------0-----------0------|
|*--2--0--4--0-----0-----------0---------|
|---4-----2------------------------------|
|---------------5-----------5------------|
 
|---------------|---------------|
|-----------0---|------------0--|
|--------0-----*|---------0-----|
|-----0--------*|------0--------|
|---------------|---------------|
|--5------------|---5-----------|

Section c:
              
|----------------0--------------------------|
|--0---------0-------------0-------------0--|
|---------2-------------2-------------2-----|
|------0-------------0-------------0--------|
|-------------------------------------------|
|--2-------------2-------------2------------|
 
|--0---------0------------------0-----------|
|--------0------------------0------------0--|
|--------2-------2-/-5---5------------5-----|
|-----0------------------0---------0--------|
|-------------------------------------------|
|--2-----2-------2-/-5----------5-----------|   
 
|---0------------0------------|
|------------0------------0---|
|---------5------------5------|  end of C
|------0------------0---------|
|-----------------------------|
|---5------------5------------|

Section D:

|-------10--------------------7-----------------|
|---7-----------------------------10------------|
|*-----------------0-------------------------0--|
|*--------------0---------0---------------0-----|
|----------------------0------------------------|
|---0-------0-----------------0-------0---------|
 
|-------------7---0-------5---0-------3---|
|---------5-----------3-----------2-------|
|-----0-----------------------------------|
|--0--------------0-----------0-----------|
|-------------0-----------0---------------|
|---------0-----------0-----------0-------|
 
|---------------3p0h3---0-----------------------|
|-----------2---2p0h2---0--------0-----------0--|
|--------0--------------------0-----------0-----|
|-----0-------------0------0-----------0--------|
|---------------0-------------------------------|
|--0--------------------0-----------0-----------|

                                 ______
                                 |1                       
                                 |
|--0-------------3p0------3---0-------------|
|------------0---2p0------2---0---------0---|
|---------0---------------0----------0------|
|------0--------------0-----------0---------|
|----------------0--------0-----------------|
|--0--------------------------0-------------|
 
|-------------------------------|
|------------0-------------0----|
|---------0-------------0------*|
|------0-------------0---------*|
|-------------------------------|
|--0-------------0--------------|

  ______
  |2
  |
|------------3p0-----3---0-------------3p0-----|
|------------2p0-----2---0-------------2p0-----|
|--------0---0----0--0---0---------0---0-0--0--|
|-----0--------0----------------0--------0-----|
|--0---------0-------0-------0-----------------|
|------------------------0-------------0-------|

end of D }
         }
|--3---0---------------------------------------|
|--2---0---------0------------0------------0---|
|--0---0------0------------0------------0------|
|-----------------------0------------0---------|
|--0-------0-----------------------------------|
|------0-------------0------------0------------|
 
|--15---10---12p10p0--------------0----|
|----------------------10---------0----|
|------------------------------0-------|
|---------------------------0----------|
|--------------------------------------|
|----------------------0---------------|
 
|-------------------7p0---3p0--------------------|
|-------------0----------------------5--------5--|
|*---------0----------------------0--------0-----|
|*------0----------------------0--------0--------|
|-------------------------0----------------------|
|----0-----------0-------------------0-----------|

                                 ______
                                 |1
                                 |
|---------------0-------------0-----------7--7---|
|---5h7----------------------------7h10----------|
|------------0-------------0---------------------|
|---------0-------------0------------------------|
|----------------------------------0-------------|
|---0---------------0---------------------0------|
                          
                             ______
                             |2
                             |
|--7--7--7h10---------10---|-----------------|
|--------------------------|-------------7---|
|------------------0------*|----------0------|
|---------------0---------*|-------0---------|
|--------------------------|-----------------|
|--0-----0-----------------|---0-------------|
 
|------------0------------------|
|------------0-------------0----|
|---------0-------------0-------|
|------0-------------0----------|
|-------------------------------|
|--0-------------0--------------|
 
repeat Section D playing second part of inital
repeat, then:
       r
|--0---0-------0-------------0-------------0---|
|--0---0-------0---------0-------------0-------|
|--0---0-------0------0-------------0----------|
|----------0-------0-------------0-------------|
|------0---------------------------------------|
|--0-----------0-------------0-------------0---|

                                r
|--3p0----3---|----3-/--7-------7-------5---|
|--2p0----2---|---------0-------0-------0---|
|--0p0----0---|*--------0-------0-------0---|
|------0------|*--------------------0-------|
|--0------0---|-------------0---------------|
|-------------|----0--------------------0---|

                                              r
|------------3---------0---3p0--------3-/-5---5--|
|--------0---2---------0---2p0--------0-------0--|
|-----0-------------0------0-------0----------0--|
|--0-------------0--------------0-------------0--|
|------------0-------------0---------------------|
|---------------------------------------0--------|
 
|--3------------3p0------------|--0--------------|
|--0--------0---0----------0---|--------------0--|
|--0-----0------0-------0-----*|-----------0-----|
|-----0--------------0--------*|--------0--------|
|--0------------0--------------|-----------------|
|------------------------------|-----0-----------|

repeat Section C, then:

|-----------------------------------------0---|
|-----------------------------------------0---|
|--------------------------------------0------|
|---------------0---5---4---0-------0---------|
|--------0h5----------------------------------|
|--0h5--------------------------5-------------|

repeat Section A from asterisk then as normal
including repeat, then:

|-----0-----------------------0-------------------|
|--5-----5----------5------5-----5-------------5--|
|------------0---0-----0-------------0------0-----|
|-------------------------------------------------|
|--5---------4-----------------------4---4--------|
|--------------------------5----------------------|
 
|-----0-----------------------0-------------------|
|--5-----5-----------------5-----5----------------|
|------------0---------0-------------0---------0--|
|-------------------0-----------------------0-----|
|--5---------4---4-------------------4---4--------|
|--------------------------5----------------------|
 
|-----------------|
|------------0----| 
|---------0-------| 
|------0----------|  now fade out with Section A
|------5----------|  but first begin from asterisk
|--5--------------|  and with this variation:
 
|--0h5--------5p0---|
|-------------0-----| 
|----------0--------| 
|-------0-----------| 
|-------------------| 
|--5----------------|

james_calton@yahoo.com    Sheffield, England, 2003.

________________________________________________________________________________
     
Добавлено: 13.11.2013
Другие материалы по этой песне:
  • Аккорды и текст

Страница создана 13.11.2013
http://primanota.ru/will-ackerman/passage-chords.htm
Привет, Гость.
Предлагаем пройти революционный курс по гитаре.
Подарок от PrimaNota.Ru, забирай!