PrimaNota.ru - самый крупный в мире бесплатный архив песенных текстов, аккордов, табулатур и нот


Will Ackerman - James Estell Bradley - таба, видео

Регистрация Запомнить меня
Войти через:  Facebook Google Twitter Vk Yandex Mail.ru

Will Ackerman - James Estell Bradley - таба, видео

Печатать
Просмотров: 68
A Tribute to the Philosophy of James Estell Bradley
by Will Ackerman
 
From the album 'It Takes A Year'
 
Tuning: DADF#AD (Open D)
 

|---12------------12-----------|---------------12--------11--|
|-------------0-------------0--|-----------0-----------------|
|*---------0-------------0-----|--------0-------------0------|
|*------0-------------0--------|-----0-------------0---------|
|------------------------------|-----------------------------|
|---0-------------0------------|--0------------0-------------|
 
 
|---11-/-7---7------------|---7---------------0---------|
|---------------------0---|------------0------------0---|
|------------------0------|---------0------------0------|
|--------0------0---------|------0------------0---------|
|-------------------------|-----------------------------|
|---0--------0------------|---0------------0------------|
 
 
|---11--------9---9h11p9p0--0--|--5------------5------------|
|------------------------------|-----------0------------0---|
|----------0----------------0--|--5-----5------------5------|
|-------0-------------0--------|-----0------------0---------|
|------------------------------|----------------------------|
|---0-------------0------------|---------------5------------|
 
 
|---5------------5-/-9-----7--|---7-\-4---4------------|
|------------0-------------0--|---0----------------0---|
|---------5-------------0-----|-----------------0------|
|------0-------------0--------|-------0------0---------|
|-----------------------------|------------------------|
|---5------------0------------|---0-------0------------|
 
                      _____________________    ________
                      |1                       |2
                      |                        |
|---4------------------------|--2h4p2p0------|---2------|
|------------0------------0--|-----------0---|----------|
|---------0------------0-----|------0-------*|----------|
|------0------------0--------|----0---------*|------0---|
|----------------------------|---------------|---0------|
|---0------------0-----------|--0------------|----------|
 
 
|------------------------------|--2-------------|
|---4--------0---0h2--------2--|-----2----------|
|---------0--------------2-----|---------2------|
|------0--------------2--------|------------2---|
|------------------------------|------------2---|
|---0------------0h2-----------|---------2------|
 
                                            __________
                                            |1,2
                                            |
|----------------------2------|--------------0------------|
|----2--------2---2h4-----4---|--4--------4-----4---------|
|*---------2--2---2-----------|--------0-----------0------|
|*------2---------------------|-----0-----------------0---|
|-------------------2---------|-----------------------0---|
|----2------------2-----------|--0-----------------0------|
 

|---------------0------------|--------------2-------------|
|------------4-----4---------|--4--------4-----4----------|
|---------0-----------0------|--------2-----------2------*|
|------0-----------------0---|-----2-----------------2---*|
|---------------------0------|-----------------------2----|
|---0------------------------|--2-----------------2-------|
 

Repeat twice

 _________
 |3
 |
|------------------|--0------------0-----------|--------------|
|--4-/-5--------5--|-----------5------------5--|--0--------0--|
|------------0-----|--------0------------0-----|--------0-----|
|---------0--------|-----0------------0--------|-----0--------|
|------------------|---------------------------|--------------|
|--0---------------|--0------------0-----------|--0-----------|
 

Repeat all again, but with this ending instead of last repeat:
 

|-------------------|--0------------------|
|---4-/-5--------5--|-----0---------------|
|-------------0-----|--------5------------|
|----------0--------|---------------------|
|-------------------|---------------------|
|---0---------------|-----------0---------|
 
James Calton, Sheffield, England, 2003.

________________________________________________________________________________
     
Добавлено: 02.12.2013
Другие материалы по этой песне:
  • Аккорды и текст

Страница создана 20.11.2013
http://primanota.ru/will-ackerman/james-estell-bradley-chords.htm
Привет, Гость.
Предлагаем пройти революционный курс по гитаре.
Подарок от PrimaNota.Ru, забирай!