PrimaNota.ru - самый крупный в мире бесплатный архив песенных текстов, аккордов, табулатур и нот


Will Ackerman - Abide The Winter - таба, видео

Регистрация Запомнить меня
Войти через:  Facebook Google Twitter Vk Yandex Mail.ru

Will Ackerman - Abide The Winter - таба, видео

Печатать
Просмотров: 68
Abide the Winter
by Will Ackerman

Tuning: CGCGCE (Open C)

Key:  h = hammer-on         p = pull-off
      / = slide up to note

This can be found on at least a couple of the Windham Hill winter
collections. It is sensitive, delicate and meaningful and, to me, ranks
with the best of his work.

I think most of the notes are correct. I spent about two minutes
dividing it into bars of 4 beats so listen to the track for more
clarity as there are plenty of pauses here and there. Obviously, any
empty bars signify 4 beats of silence. Hope it works for you!

james_calton@yahoo.com     Sheffield, England, 2003.

 

E|------------0---------------|---------------------------|
C|--4-------------5--------5--|--7--------7------------0--|
G|--------0-------------0-----|--------0------------0-----|
C|-----0-------------0--------|-----0------------0--------|
G|--5-------------7-----------|--9------------9-----------|
C|----------------------------|---------------------------|


|-----------0--------0------|-------------------------0--|
|--4------------5p4------0--|--2--------0---4------------|
|--------0------------------|--------0------------0------|
|-----0--------------0------|-----0------------0---------|
|--5------------5--------0--|--4------------5------------|
|---------------------------|----------------------------|

                   pause
|--------------------------|-------------0------------------|
|--------------0-----------|--4--------------5-----------0--|
|----------0---------------|---------0---------------0------|
|------0-------------------|------0--------------0----------|
|--5-----------------------|--5--------------7--------------|
|--------------------------|--------------------------------|


|---------------------------|-----------0----------------|
|--7--------7------------0--|--2------------0---------0--|
|--------0------------0-----|--------0------------0------|
|-----0------------0--------|-----0------------0---------|
|--9------------9--------0--|--4------------2---------0--|
|---------------------------|----------------------------|

                                              pause
|------------------------------0--|-----------------------|
|--2-----------0---4--------------|-----------------------|
|----------0---------------0------|-----------------------|
|------0---------------0----------|------4----------------|
|--4-----------0---5--------------|--5--------------------|
|---------------------------------|-----------------------|


|-----------0---------0------|--3--------0----------------|
|--4------------5p4-------0--|-------------------------0--|
|--------0-------------------|--------0------------0------|
|-----0---------------0------|-----0------------0---------|
|--5------------5---------0--|--4------------4---------0--|
|----------------------------|----------------------------|


|-----------0----------------|-------------------------0--|
|--2------------0---------0--|--2---------0---4-----------|
|--------0------------0------|--------0-------------0-----|
|-----0------------0---------|-----0-------------0--------|
|--4------------2---------0--|--4---------0---5-----------|
|----------------------------|----------------------------|


|------------0-----------0--|-----------0-----------0------|
|---------------------------|--4------------5p4---------0--|
|--------0------------0-----|--------0--------------0------|
|-----0------------0--------|-----0--------------0---------|
|--5------------5-----------|--5------------5-----------0--|
|---------------------------|------------------------------|


|--3--------3----------------|-------------0---------------|
|-------------------------0--|--9--------------5--------5--|
|--------0------------0------|---------0-------------0-----|
|-----0------------0---------|------0------0------0--------|
|--4------------4---------0--|--10-------------7-----------|
|----------------------------|-----------------------------|


|-----------------------------|--------------------------------|
|-5-/-7--------7--4--------0--|-7--------7h9p7--5--------5h7p5-|
|-----------0-----------0-----|-------0---------------0--------|
|--------0-----------0--------|----0---------------0-----------|
|-7-/-9-----------5--------0--|-9---------------7--------------|
|-----------------------------|--------------------------------|

                                           pause
|--------------------|---------------------------|--------|
|--4-----0-----2-----|--2---------------0--------|--------|
|--------------------|--------------0------------|--------|
|-----0-----0-----0--|----------0----------------|--------|
|--5-----0-----4-----|------5--------------------|--------|
|--------------------|---------------------------|--------|


|--3--------3------------3--|-----------3--------------3--|
|--------0------------0-----|--------0-------------0------|
|-----4------------4--------|-----4------------4----------|
|--4------------4-----------|--4------------4-------------|
|---------------------------|-----------------------------|
|---------------------------|-----------------------------|


|--1--------1------------1--|-----------1-------------0--|
|--------0------------0-----|--------0------------0------|
|-----2------------2--------|-----2------------2---------|
|--2------------2-----------|--2------------2------------|
|---------------------------|----------------------------|
|---------------------------|----------------------------|


|--5--------5-----------5--|--3--------3------------3--|
|--------0-----------0-----|--------0-----------0------|
|-----5-----------5--------|-----4-----------4---------|
|--5-----------5-----------|--4-----------4------------|
|--------------------------|---------------------------|
|--------------------------|---------------------------|


|--1--------1------------1--|-----------1----------0h1--|
|--------0-----------0------|--------0-------------0----|
|-----2-----------2---------|-----2------------2---0h2--|
|--2-----------2------------|--2------------2------0h2--|
|---------------------------|---------------------------|
|---------------------------|---------------------------|


|--3--------3------------3--|-----------3------------3--|
|--0-----0------------0-----|--------0------------0-----|
|--4--4------------4--------|-----4------------4--------|
|--4------------4-----------|--4------------4-----------|
|---------------------------|---------------------------|
|---------------------------|---------------------------|


|--8--------8-----------8--|--3--------3-------------0--|
|--------0-----------0-----|--------0------------0------|
|-----9-----------9--------|-----4------------4---------|
|--9-----------9-----------|--4------------4------------|
|--------------------------|----------------------------|
|--------------------------|----------------------------|


|--5--------5------------0--|--1---------1------------0--|
|--------0------------0-----|--------0-------------0-----|
|-----5------------5--------|-----2-------------2--------|
|--5------------5-----------|--2-------------2-----------|
|---------------------------|----------------------------|
|---------------------------|----------------------------|


|--5--------5---3---------3--|--1---------1-----------1--|
|--------0------------0------|--------0------------0-----|
|-----5------------4---------|-----2------------2--------|
|--5------------4------------|--2------------2-----------|
|----------------------------|---------------------------|
|----------------------------|---------------------------|

    pause                           pause
|-----------0h1--|--3-------3-----|-------0h1--|--3-------|
|-----------0----|--0---4---------|-------0----|--0---0---|
|-----------0h2--|--4-------------|-------0h2--|--4-------|
|-----------0h2--|--4-------------|-------0h2--|--4-------|
|----------------|----------------|------------|----------|
|----------------|----------------|------------|----------|

    pause                          pause
|-----------0h1--|--3---------3--|-------0h1--|--3------|
|-----------0----|--0-----4------|-------0----|--0------|
|-----------0h2--|--4------------|-------0h2--|--4------|
|-----------0h2--|--4------------|-------0h2--|--4------|
|----------------|---------------|------------|---------|
|----------------|---------------|------------|---------|

    pause
|----------------8--|--8---0---8---7-------0---7--|
|-------------------|-----------------------------|
|-------------------|------------------0----------|
|-------------------|--9-----------7--------------|
|-------------------|-----------------------------|
|-------------------|-----------------------------|


|--5-----5-----3------------|------------------0--------|
|------------------------0--|--4--------4---5--------0--|
|-----0--------------0------|--------0------------0-----|
|--5--------0-----0---------|-----0------------0--------|
|--------------5------------|--5------------5--------0--|
|---------------------------|---------------------------|


|--------------------------|---------8---8-------0---8--|
|--2-------7-------4-------|----------------------------|
|--------------------------|-----------------0----------|
|------0-------0-------0---|-------------9--------------|
|--4-------9-------5-------|----------------------------|
|--------------------------|----------------------------|


|--7-----0--7--5------5--0--|--3-------------------------|
|---------------------------|-----------0---4---------4--|
|-----0------------0--------|--------0------------0------|
|--7-----------5------------|-----0------------0---------|
|---------------------------|--5------------5------------|
|---------------------------|----------------------------|


|--------------------------------|------------------0----|
|--5p4-----4--0---0-----------0--|--0h2---------0---0----|
|-------------------------0------|-----------0------0----|
|-------0-------------0----------|--------0---------5----|
|--5----------0---2--------------|--2---------------0----|
|--------------------------------|-----------------------|

 

 

 

________________________________________________________________________________
     
Добавлено: 10.07.2013
Другие материалы по этой песне:

Страница создана 10.07.2013
http://primanota.ru/will-ackerman/abide-the-winter-chords.htm
Привет, Гость.
Предлагаем пройти революционный курс по гитаре.
Подарок от PrimaNota.Ru, забирай!