PrimaNota.ru - самый крупный в мире бесплатный архив песенных текстов, аккордов, табулатур и нот


Wildhearts - The Miles Away Girl - текст песни, таба, бас-таба, видео

Регистрация Запомнить меня
Войти через:  Facebook Google Twitter Vk Yandex Mail.ru

Wildhearts - The Miles Away Girl - текст песни, таба, бас-таба, видео

Печатать
Просмотров: 132
Уроки эстрадного вокала в Санкт-Петербурге
Авторы: Ginger Wildheart

E FLAT TUNING [DGCFAD]


INTRO

E---------------------------------|
B---------------------------------|
G---------------------------------| X3
D--8-2-2--6-7-9-6-7-9--2-2--6-7---|
A--7-0-0--4-5-7-4-5-7--0-0--4-5-7-|
E-------------------------------5-|

E---------------------------------------|
B---------------------------------------|
G---------------------------------------| X1
D--8-2-2--6-7-9-6-7-9--2-2--6-7---------|
A--7-0-0--4-5-7-4-5-7--0-0--4-5-7-5-6-7-|
E-------------------------------5-3-4-5-|

E---------------------------------|
B---------------------------------|
G---------------------------------| X4
D--8-2-2--6-7-9-6-7-9--2-2--6-7---|
A--7-0-0--4-5-7-4-5-7--0-0--4-5-7-|
E-------------------------------5-|

SHES ALWAYS BUSY CARING...
E-------------------------------------------------------------------|
B-------------------------------------------------------------------|
G-------------------------------------------------------------------| PALM MUTE
D--99999999-44444444-66666666---------------------------------------|
A--77777777-22222222-44444444-66666666-77777777-99999999-22222222-7-|
E-----------------------------44444444-55555555-77777777-00000000-5-|

E-------------------------------------------------------------------|
B-------------------------------------------------------------------|
G-------------------------------------------------------------------|
D--99999999-44444444-66666666---------------------------------------|
A--77777777-22222222-44444444-66666666-77777777-99999999-22222222-7-|
E-----------------------------44444444-55555555-77777777-00000000-5-|

NOW PEOPLE ASK IF SHES OK...
E--------------------------------------------|
B--------------------------------------------|
G--------------------------------------------|
D-----------------99999----------------99999-|
A--99999999-77777-77777-99999999-77777-77777-|
E--77777777-55555-------77777777-55555-------|

WITH THE BODY OF AN ANGEL...
E----------|
B----------|
G----------|
D------6---|
A--7-6-4-4-|
E--5-4---2-|

SHES MILES AND MILES...
----------------------------------------------------------------------|
B---------------------------------------------------------------------|
G---------------------------------------------999999------------------|
D-------------999999--------------------------777777------------------|
A--2-77777777-777777-999999999999999-77777777--------99999999-444-777-|
E--0-55555555--------777777777777777-55555555--------77777777-222-555-|

E-------------------------------|
B-------------------------------|
G-------------------------------| X2
D--8-22--6-7-9-6-7-9--22--6-7---|
A--7-00--4-5-7-4-5-7--00--4-5-7-|
E-----------------------------5-|

E-------------------------------------------------------------------|
B-------------------------------------------------------------------|
G-------------------------------------------------------------------|
D--99999999-44444444-66666666---------------------------------------|
A--77777777-22222222-44444444-66666666-77777777-99999999-22222222-7-|
E-----------------------------44444444-55555555-77777777-00000000-5-|

E--------------------------------------------|
B--------------------------------------------|
G--------------------------------------------|
D-----------------99999----------------99999-|
A--99999999-77777-77777-99999999-77777-77777-|
E--77777777-55555-------77777777-55555-------|

E----------|
B----------|
G----------|
D------6---|
A--7-6-4-4-|
E--5-4---2-|

SHES MILES AND MILES...
----------------------------------------------------------------------|
B---------------------------------------------------------------------|
G---------------------------------------------999999------------------|
D-------------999999--------------------------777777------------------|
A--2-77777777-777777-999999999999999-77777777--------99999999-444-777-|
E--0-55555555--------777777777777777-55555555--------77777777-222-555-|

E-------------------------------|
B-------------------------------|
G-------------------------------| X4
D-----5-6-----------5-6-----4---|
A------------4-5--------4-5-----|
E--00-----00-----00-----------5-|

E-------------|
B-------------|
G-------------|
D----44----77-|
A--2-22-55-55-|
E--0----33----|

E-------------------------------|
B-------------------------------|
G-------------------------------|
D-----5-6-----------5-6-----4---|
A------------4-5--------4-5-----|
E--00-----00-----00-----------5-|

E-------------|
B-------------|
G-------------|
D----44-77----|
A--2-22-55-77-|
E--0-------55-|

E-------------------------------|
B-------------------------------|
G-------------------------------|
D-----5-6-----------5-6-----4---|
A------------4-5--------4-5-----|
E--00-----00-----00-----------5-|

E-----------------------------------------------------------------------------------------|
B-----------------------------------------------------------------------------------------|
G----4/3-4/3-4/6/4-----4/3-4/3-4/6/4--4/33-3/44-4/66-6/88-8/99-9/1111-11/1313131313131313-|
D-----------------------------------------------------------------------------------------|
A--2-2/1-2/1-2/4/2---2-2/1-2/1-2/4/2--2/11-1/22-2/44-4/66-6/77-7/9-9--9/-1111111111111111-|
E--0-----------------0--------------------------------------------------------------------|

[BASS SECTION]

BUT YOU NEVER SEEM TO HAVE ANY MONEY...
E--------------------------------------------|
B--------------------------------------------|
G--------------------------------------------|
D-----4--9------------4-----9----------------|
A--4--2--7--7--7-6-4--2--7--7--4-44444444444-|
E--2--------5--5-4-2-----5-----2-22222222222-|

SHES MILES AND MILES...
--------------------------------------------------------------------------------|
B-------------------------------------------------------------------------------|
G---------------------------------------------999999----------------------------|
D-------------999999--------------------------777777--------------------------9-|
A--2-77777777-777777-999999999999999-77777777--------99999999-444-777-444-777-7-|
E--0-55555555--------777777777777777-55555555--------77777777-222-555-222-555---|



NOTE: Im not 100 percent sure about the section just before the bass part but its 
definatley pretty close.
Apart from that i think its all about right!
Добавлено: 19.06.2013
Другие материалы по этой песне:
  • Аккорды и текст

Страница создана 22.05.2012
http://primanota.ru/wildhearts/the-miles-away-girl-chords.htm
Привет, Гость.
Предлагаем пройти революционный курс по гитаре.
Подарок от PrimaNota.Ru, забирай!