PrimaNota.ru - самый крупный в мире бесплатный архив песенных текстов, аккордов, табулатур и нот


Wildhearts - Suckerpunch - текст песни, таба, видео

Регистрация Запомнить меня
Войти через:  Facebook Google Twitter Vk Yandex Mail.ru

Wildhearts - Suckerpunch - текст песни, таба, видео

Печатать
Просмотров: 60
Авторы: Ginger Wildheart

Title: Suckerpunch
Artist: Wildhearts
Album: Earth Vs. the Wildhearts
Tabber: Philip Tweedie (Adapted from Johnny Rockstar Guitar pro version)
Tuning Eb

Great song, listen to it for timings. Wanted a non pro version here for all to enjoy 

_____________________________________________________________________________________

Intro

e|-16br------------|
B|-----------------|fade in from my baby is a headfuck over drum intro
G|-----------------|listen to track to get it
D|-----------------|
A|-----------------|
E|-----------------|

e|-----------------|-----------------|-----------------|-----------------|
B|-----------------|-----------------|-----------------|-----------------|
G|-----------------|-----------------|-----------------|-----------------|
D|-2---2-2---2-2---|-2-2-2---4---4---|-2---2-2---2-2---|-2-2-2---4---4---| x4
A|-2---2-2---2-2---|-2-2-2---4---4---|-2---2-2---2-2---|-2-2-2---4---4---|
E|-0---0-0---0-0---|-0-0-0---2---2---|-0---0-0---0-0---|-0-0-0---2---2---|
_____________________________________________________________________________________

Verse 1

"Can't believe that I got so down, I dropped my guard again, hit me, hit me"
e|-----------------|-----------------|-----------------|-----------------|
B|-----------------|-----------------|-----------------|-----------------|
G|-----------------|-----------------|-----------------|-----------------|
D|-x---x-x---x-x---|-x---x---x---x---|-x---x-x---x-x---|-x---x---x---x---|
A|-x---x-x---x-x---|-x---x---x---x---|-x---x-x---x-x---|-x---x---x---x---|
E|-x---x-x---x-x---|-x---x---x---x---|-x---x-x---x-x---|-x---x---x---x---|

e|-----------------|-----------------|-----------------|-----------------|
B|-----------------|-----------------|-----------------|-----------------|
G|-----------------|-----------------|-----------------|-----------------|
D|-2---2-2---2-2---|-2-2-2---4---4---|-2---2-2---2-2---|-2-2-2---4---4---|
A|-2---2-2---2-2---|-2-2-2---4---4---|-2---2-2---2-2---|-2-2-2---4---4---|
E|-0---0-0---0-0---|-0-0-0---2---2---|-0---0-0---0-0---|-0-0-0---2---2---|

"Palpitations and goo-goo eyes, The transformation is sad and sickly"
e|-----------------|-----------------|-----------------|-----------------|
B|-----------------|-----------------|-----------------|-----------------|
G|-----------------|-----------------|-----------------|-----------------|
D|-x---x-x---x-x---|-x---x---x---x---|-x---x-x---x-x---|-x---x---x---x---|
A|-x---x-x---x-x---|-x---x---x---x---|-x---x-x---x-x---|-x---x---x---x---|
E|-x---x-x---x-x---|-x---x---x---x---|-x---x-x---x-x---|-x---x---x---x---|

e|-----------------|-----------------|-----------------|-----------------|
B|-----------------|-----------------|-----------------|-----------------|
G|-----------------|-----------------|-----------------|-----------------|
D|-2---2-2---2-2---|-2-2-2---4---4---|-2---2-2---2-2---|-2---2-2-2-2-2-2-|
A|-2---2-2---2-2---|-2-2-2---4---4---|-2---2-2---2-2---|-2---2-2-2-2-2-2-|
E|-0---0-0---0-0---|-0-0-0---2---2---|-0---0-0---0-0---|-0---0-0-0-0-0-0-|

"She pulled out a Tyson from out of the blue"
e|-----------------|-----------------|-----------------|-----------------|
B|-----------------|-----------------|-----------------|-----------------|
G|-6---6---6---6---|-6---6---6---6---|-6---6---6---6---|-6---6---6---6---|
D|-6---6---6---6---|-6---6---6---6---|-6---6---6---6---|-6---6---6---6---|
A|-4---4---4---4---|-4---4---4---4---|-4---4---4---4---|-4---4---4---4---|
E|-----------------|-----------------|-----------------|-----------------|

"And met with a sickening crunch"
e|-----------------|-----------------|-----------------|-----------------|
B|-----------------|-----------------|-----------------|-----------------|
G|-2---2---2---2---|-2---2---2---2---|-2---2---2---2---|-2---2-----------|
D|-2---2---2---2---|-2---2---2---2---|-2---2---2---2---|-2---2---4---4---|
A|-0---0---0---0---|-0---0---0---0---|-0---0---0---0---|-0---0---4---4---|
E|-----------------|-----------------|-----------------|---------2---2---|
_____________________________________________________________________________________

Chorus 1
"She got me" 
e|-----------------|-----------------|-----------------|-----------------|
B|-----------------|-----------------|-----------------|-----------------|
G|-----------------|-----------------|-2---2---2---2---|-2---2---2---2---|
D|-2---2---2---2---|-2---2---2---2---|-2---2---2---2---|-2---2---2---2---|
A|-2---2---2---2---|-2---2---2---2---|-0---0---0---0---|-0---0---0---0---|
E|-0---0---0---0---|-0---0---0---0---|-----------------|-----------------|

"woah, she got me"
e|-----------------|-----------------|-----------------|-----------------|
B|-----------------|-----------------|-3---3---3---3---|-----------------|
G|-----------------|-----------------|-2---2---2---2---|-2---2---2---2---|
D|-2---2---2---2---|-2---2---2---2---|-0---0---0---0---|-2---2---2---2---|
A|-2---2---2---2---|-2---2---2---2---|-----------------|-0---0---0---0---|
E|-0---0---0---0---|-0---0---0---0---|-----------------|-----------------|

"She got me, with a suckerpunch"
e|-----------------|-----------------|-----------------|-----------------|
B|-----------------|-----------------|-----------------|-----------------|
G|-----------------|-----------------|-2---2-2-2-2-2-2-|-2---------------|
D|-2---2---2---2---|-2---2---2---2---|-2---2-2-2-2-2-2-|-2---------------|
A|-2---2---2---2---|-2---2---2---2---|-0---0-0-0-0-0-0-|-0---------------|
E|-0---0---0---0---|-0---0---0---0---|-----------------|-----------------|

e|-----------------|-----------------|-----------------|-----------------|
B|-----------------|-----------------|-----------------|-----------------|
G|-----------------|-----------------|-----------------|-----------------|
D|-2---2-2---2-2---|-2-2-2---4---4---|-2---2-2---2-2---|-2-2-2---4---4---| x2
A|-2---2-2---2-2---|-2-2-2---4---4---|-2---2-2---2-2---|-2-2-2---4---4---|
E|-0---0-0---0-0---|-0-0-0---2---2---|-0---0-0---0-0---|-0-0-0---2---2---|
_____________________________________________________________________________________

Verse 2
"Senses reeling from too much shit, I hit the floor again, panic, panic"
e|-----------------|-----------------|-----------------|-----------------|
B|-----------------|-----------------|-----------------|-----------------|
G|-----------------|-----------------|-----------------|-----------------|
D|-x---x-x---x-x---|-x---x---x---x---|-x---x-x---x-x---|-x---x---x---x---|
A|-x---x-x---x-x---|-x---x---x---x---|-x---x-x---x-x---|-x---x---x---x---|
E|-x---x-x---x-x---|-x---x---x---x---|-x---x-x---x-x---|-x---x---x---x---|

e|-----------------|-----------------|-----------------|-----------------|
B|-----------------|-----------------|-----------------|-----------------|
G|-----------------|-----------------|-----------------|-----------------|
D|-2---2-2---2-2---|-2-2-2---4---4---|-2---2-2---2-2---|-2-2-2---4---4---|
A|-2---2-2---2-2---|-2-2-2---4---4---|-2---2-2---2-2---|-2-2-2---4---4---|
E|-0---0-0---0-0---|-0-0-0---2---2---|-0---0-0---0-0---|-0-0-0---2---2---|

"Calm and cold as a witch's tit, Sometimes I think that that girl's mechanic"
e|-----------------|-----------------|-----------------|-----------------|
B|-----------------|-----------------|-----------------|-----------------|
G|-----------------|-----------------|-----------------|-----------------|
D|-x---x-x---x-x---|-x---x---x---x---|-x---x-x---x-x---|-x---x---x---x---|
A|-x---x-x---x-x---|-x---x---x---x---|-x---x-x---x-x---|-x---x---x---x---|
E|-x---x-x---x-x---|-x---x---x---x---|-x---x-x---x-x---|-x---x---x---x---|

e|-----------------|-----------------|-----------------|-----------------|
B|-----------------|-----------------|-----------------|-----------------|
G|-----------------|-----------------|-----------------|-----------------|
D|-2---2-2---2-2---|-2-2-2---4---4---|-2---2-2---2-2---|-2---2-2-2-2-2-2-|
A|-2---2-2---2-2---|-2-2-2---4---4---|-2---2-2---2-2---|-2---2-2-2-2-2-2-|
E|-0---0-0---0-0---|-0-0-0---2---2---|-0---0-0---0-0---|-0---0-0-0-0-0-0-|

"With all of the shit that flew out of my lips,"
e|-----------------|-----------------|-----------------|-----------------|
B|-----------------|-----------------|-----------------|-----------------|
G|-6---6---6---6---|-6---6---6---6---|-6---6---6---6---|-6---6---6---6---|
D|-6---6---6---6---|-6---6---6---6---|-6---6---6---6---|-6---6---6---6---|
A|-4---4---4---4---|-4---4---4---4---|-4---4---4---4---|-4---4---4---4---|
E|-----------------|-----------------|-----------------|-----------------|

"There's no use in asking much"
e|-----------------|-----------------|-----------------|-----------------|
B|-----------------|-----------------|-----------------|-----------------|
G|-2---2---2---2---|-2---2---2---2---|-2---2---2---2---|-2---2-----------|
D|-2---2---2---2---|-2---2---2---2---|-2---2---2---2---|-2---2---4---4---|
A|-0---0---0---0---|-0---0---0---0---|-0---0---0---0---|-0---0---4---4---|
E|-----------------|-----------------|-----------------|---------2---2---|
_____________________________________________________________________________________

Chorus 2

"She got me" 
e|-----------------|-----------------|-----------------|-----------------|
B|-----------------|-----------------|-----------------|-----------------|
G|-----------------|-----------------|-2---2---2---2---|-2---2---2---2---|
D|-2---2---2---2---|-2---2---2---2---|-2---2---2---2---|-2---2---2---2---|
A|-2---2---2---2---|-2---2---2---2---|-0---0---0---0---|-0---0---0---0---|
E|-0---0---0---0---|-0---0---0---0---|-----------------|-----------------|

"Woah, she got me"
e|-----------------|-----------------|-----------------|-----------------|
B|-----------------|-----------------|-3---3---3---3---|-----------------|
G|-----------------|-----------------|-2---2---2---2---|-2---2---2---2---|
D|-2---2---2---2---|-2---2---2---2---|-0---0---0---0---|-2---2---2---2---|
A|-2---2---2---2---|-2---2---2---2---|-----------------|-0---0---0---0---|
E|-0---0---0---0---|-0---0---0---0---|-----------------|-----------------|

"She got me with a" 
e|-----------------|-----------------|-----------------|-----------------|
B|-----------------|-----------------|-----------------|-----------------|
G|-----------------|-----------------|-2---2---2---2---|-2---2---2---2---|
D|-2---2---2---2---|-2---2---2---2---|-2---2---2---2---|-2---2---2---2---|
A|-2---2---2---2---|-2---2---2---2---|-0---0---0---0---|-0---0---0---0---|
E|-0---0---0---0---|-0---0---0---0---|-----------------|-----------------|

"sucker, sucker, sucker, Woah, you fucker!"
e|-----------------|-----------------|-----------------|-----------------|
B|-----------------|-----------------|-----------------|-----------------|
G|-----------------|-----------------|-----------------|-----------------|
D|-5---x-x-x-x-x-x-|-5---x-x-x-x-x-x-|-5---x-x-x-x-x-x-|-x-x-x-x-x-x-x-x-|
A|-5---x-x-x-x-x-x-|-5---x-x-x-x-x-x-|-5---x-x-x-x-x-x-|-x-x-x-x-x-x-x-x-|
E|-3---x-x-x-x-x-x-|-3---x-x-x-x-x-x-|-3---x-x-x-x-x-x-|-x-x-x-x-x-x-x-x-|
_____________________________________________________________________________________

Breakdown
"One, two, three, four (on 8th repeat)"
PM_________________ Harms............
e|-----------------|-----------------|
B|-----------------|-----------------|
G|-----------------|-----------------| x8
D|-----------------|-----------------|
A|-----------------|-----------------|
E|-0-0-0-0-0-0-0-0-|-5-5-5-5-4-4-4-4-|

                                                                  PM_____
e|-----------------|-----------------|-----------------|-----------------|
B|-----------------|-----------------|-----------------|-----------------|
G|-------6-4-------|-------6-4-------|-------6-6-------|-------6-4-------|
D|-2-----6-4---4---|-2-----6-4-6-4---|-2-----6-4---4---|-2-----6-4-6-5-4-|
A|-2-----4-2---4---|-2-----4-2-6-4---|-2-----4-2---4---|-2-----4-2-6-5-4-|
E|-0-----------2---|-0---------4-2---|-0-----------2---|-0---------4-3-2-|

e|-----------------|-----------------|-----------------|-----------------|
B|-----------------|-----------------|-----------------|-----------------|
G|-------9-7-------|-------9-7-------|-------6-4-------|-------6-4-------|
D|-5-----9-7---7---|-5-----9-7-9-7---|-2-----6-4---4---|-2-----6-4-6-4---|
A|-5-----7-5---7---|-5-----7-5-9-7---|-2-----4-2---4---|-2-----4-2-6-4---|
E|-3-----------5---|-3---------7-5---|-0-----------2---|-0---------4-2---|

Harms..............
e|-----------------|
B|-----------------|
G|-----------------| play harmonics from 9th fret sliding down to 2
D|-----------------|
A|-----------------|
E|-9\\\\\\\\\\\\\2-|

PM_________________ Harms............
e|-----------------|-----------------|
B|-----------------|-----------------|
G|-----------------|-----------------| x4
D|-----------------|-----------------|
A|-----------------|-----------------|
E|-0-0-0-0-0-0-0-0-|-5-5-5-5-4-4-4-4-|
_____________________________________________________________________________________

Bridge
"Why I see her face, in a million stars, I'm wondering?"
"Thought I had good taste, 'til I found I'd none at all"
e|-----------------|-----------------|-----------------|-----------------|
B|-----------------|-----------------|-----------------|-----------------|
G|-4-4-4-4-4-4-4-4-|-4-4-4-4-4-4-4-4-|-2-2-2-2-2-2-2-2-|-----------2-2-2-|
D|-4-4-4-4-4-4-4-4-|-4-4-4-4-4-4-4-4-|-2-2-2-2-2-2-2-2-|-2-2-2-2-2-2-2-2-| x2
A|-2-2-2-2-2-2-2-2-|-2-2-2-2-2-2-2-2-|-0-0-0-0-0-0-0-0-|-2-2-2-2-2-0-0-0-|
E|-----------------|-----------------|-----------------|-0-0-0-0-0-------|

"Nearly did appear, As the asshole of the year,              And then she"
e|-----------------|-----------------|-----------------|-----------------|
B|-----------------|-----------------|-----------------|-----------------|
G|-4-4-4-4-4-4-4-4-|-4-4-4-4-4-4-4-4-|-----------------|-----------------|
D|-4-4-4-4-4-4-4-4-|-4-4-4-4-4-4-4-4-|-4-4-4-4-4-4-4-4-|-4-4-4-4-4-4-2---|
A|-2-2-2-2-2-2-2-2-|-2-2-2-2-2-2-2-2-|-4-4-4-4-4-4-4-4-|-4-4-4-4-4-4-2---|
E|-----------------|-----------------|-2-2-2-2-2-2-2-2-|-2-2-2-2-2-2-0---|

"Strikes,                           And now I'm back, The guy I'd been"
e|-----------------|-----------------|-----------------|-----------------|
B|-----------------|-----------------|-----------------|-----------------|
G|-2-2-2-2-2-2-2-2-|-2-2-2-2-2-------|-4-------2-------|-4-------2-------|
D|-2-2-2-2-2-2-2-2-|-2-2-2-2-2---2---|-4-------2---2---|-4-------2---2---|
A|-0-0-0-0-0-0-0-0-|-0-0-0-0-0---2---|-2-------0---2---|-2-------0---2---|
E|-----------------|-------------0---|-------------0---|-------------0---|

"Before the idiot set in"
e|-----------------|-----------------|
B|-----------------|-----------------|
G|-4-------2-------|-4---------------|
D|-4---2---2---2---|-4---------------|
A|-2---2---0---2---|-2---------------|
E|-----0-------0---|-----------------|
_____________________________________________________________________________________

Verse 3
"Can't believe that I got so down, It probably happens on a daily basis"
e|-----------------|-----------------|-----------------|-----------------|
B|-----------------|-----------------|-----------------|-----------------|
G|-----------------|-----------------|-----------------|-----------------|
D|-x---x-x---x-x---|-x---x---x---x---|-x---x-x---x-x---|-x---x---x---x---|
A|-x---x-x---x-x---|-x---x---x---x---|-x---x-x---x-x---|-x---x---x---x---|
E|-x---x-x---x-x---|-x---x---x---x---|-x---x-x---x-x---|-x---x---x---x---|

e|-----------------|-----------------|-----------------|-----------------|
B|-----------------|-----------------|-----------------|-----------------|
G|-----------------|-----------------|-----------------|-----------------|
D|-2---2-2---2-2---|-2-2-2---4---4---|-2---2-2---2-2---|-2-2-2---4---4---|
A|-2---2-2---2-2---|-2-2-2---4---4---|-2---2-2---2-2---|-2-2-2---4---4---|
E|-0---0-0---0-0---|-0-0-0---2---2---|-0---0-0---0-0---|-0-0-0---2---2---|

"Many millions of messed up minds, Compete to win in the loser races"
e|-----------------|-----------------|-----------------|-----------------|
B|-----------------|-----------------|-----------------|-----------------|
G|-----------------|-----------------|-----------------|-----------------|
D|-x---x-x---x-x---|-x---x---x---x---|-x---x-x---x-x---|-x---x---x---x---|
A|-x---x-x---x-x---|-x---x---x---x---|-x---x-x---x-x---|-x---x---x---x---|
E|-x---x-x---x-x---|-x---x---x---x---|-x---x-x---x-x---|-x---x---x---x---|

e|-----------------|-----------------|-----------------|-----------------|
B|-----------------|-----------------|-----------------|-----------------|
G|-----------------|-----------------|-----------------|-----------------|
D|-2---2-2---2-2---|-2-2-2---4---4---|-2---2-2---2-2---|-2---2-2-2-2-2-2-|
A|-2---2-2---2-2---|-2-2-2---4---4---|-2---2-2---2-2---|-2---2-2-2-2-2-2-|
E|-0---0-0---0-0---|-0-0-0---2---2---|-0---0-0---0-0---|-0---0-0-0-0-0-0-|

"Peeling my mind like she's one of a kind"
e|-----------------|-----------------|-----------------|-----------------|
B|-----------------|-----------------|-----------------|-----------------|
G|-6---6---6---6---|-6---6---6---6---|-6---6---6---6---|-6---6---6---6---|
D|-6---6---6---6---|-6---6---6---6---|-6---6---6---6---|-6---6---6---6---|
A|-4---4---4---4---|-4---4---4---4---|-4---4---4---4---|-4---4---4---4---|
E|-----------------|-----------------|-----------------|-----------------|

"Or maybe just out to lunch"
e|-----------------|-----------------|-----------------|-----------------|
B|-----------------|-----------------|-----------------|-----------------|
G|-2---2---2---2---|-2---2---2---2---|-2---2---2---2---|-2---2-----------|
D|-2---2---2---2---|-2---2---2---2---|-2---2---2---2---|-2---2---4---4---|
A|-0---0---0---0---|-0---0---0---0---|-0---0---0---0---|-0---0---4---4---|
E|-----------------|-----------------|-----------------|---------2---2---|
_____________________________________________________________________________________

Outro Chorus
"She got me" 
e|-----------------|-----------------|-----------------|-----------------|
B|-----------------|-----------------|-----------------|-----------------|
G|-----------------|-----------------|-2---2---2---2---|-2---2---2---2---|
D|-2---2---2---2---|-2---2---2---2---|-2---2---2---2---|-2---2---2---2---|
A|-2---2---2---2---|-2---2---2---2---|-0---0---0---0---|-0---0---0---0---|
E|-0---0---0---0---|-0---0---0---0---|-----------------|-----------------|

"woah, she got me"
e|-----------------|-----------------|-----------------|-----------------|
B|-----------------|-----------------|-3---3---3---3---|-----------------|
G|-----------------|-----------------|-2---2---2---2---|-2---2---2---2---|
D|-2---2---2---2---|-2---2---2---2---|-0---0---0---0---|-2---2---2---2---|
A|-2---2---2---2---|-2---2---2---2---|-----------------|-0---0---0---0---|
E|-0---0---0---0---|-0---0---0---0---|-----------------|-----------------|

"She got me, with a suckerpunch"
e|-----------------|-----------------|-----------------|-----------------|
B|-----------------|-----------------|-----------------|-----------------|
G|-----------------|-----------------|-2---2-2-2-2-2-2-|-2---------------|
D|-2---2---2---2---|-2---2---2---2---|-2---2-2-2-2-2-2-|-2---------------|
A|-2---2---2---2---|-2---2---2---2---|-0---0-0-0-0-0-0-|-0---------------|
E|-0---0---0---0---|-0---0---0---0---|-----------------|-----------------|
 



Enjoy
Please rate and leave constructive comments/feedback 
paddyonthetoadstool@hotmail.com October 2015
Добавлено: 10.06.2016
Другие материалы по этой песне:

Страница создана 14.05.2012
http://primanota.ru/wildhearts/suckerpunch-chords.htm
Привет, Гость.
Предлагаем пройти революционный курс по гитаре.
Подарок от PrimaNota.Ru, забирай!