PrimaNota.ru - самый крупный в мире бесплатный архив песенных текстов, аккордов, табулатур и нот


Wildhearts - Inglorious - текст песни, таба, видео

Регистрация Запомнить меня
Войти через:  Facebook Google Twitter Vk Yandex Mail.ru

Wildhearts - Inglorious - текст песни, таба, видео

Печатать
Просмотров: 68
                                    Wildhearts: Inglorious
Album: Fishing for luckies
Tabber: Philip Tweedie 
Tuning Eb
After putting up a GP version of this I didnt want non-GP users to miss out. 
I've tried to give some sense of timing and rhythm but best listen to the song to get accurate timings

Intro (clean)
|-------3--2----|----------------|--------3--2----|----------------|
|----5----------|--------3--(3)--|-----5----------|--------3--(3)--|
|o--------------|-----2----------|----------------|-----2----------|
|o---2----------|--0-------------|-----2----------|--0-------------|
|---------------|--2-------------|----------------|--2-------------|
|-0-------------|----------------|--0-------------|----------------|

|--------3--2----|-----------3----|--2--3--2--3----|--2--3--2--3---|
|-----5----------|--------3-------|----------------|---------------|
|----------------|--5--2----------|----------------|--------------o|
|-----2----------|----------------|--0-------------|--------------o|
|----------------|--3-------------|----------------|---------------|
|--0-------------|----------------|----------------|---------------|


Intro (dist) band builds up
PM--------------------------------------------------------------
|---------------------------|---------------------------|----------------------------|
|---------------------------|---------------------------|----------------------------|
|o--------------------------|--------------------------o|----------------------------|
|o--------------------------|--------------------------o|--------12-12-11-11---------|
|-------10-10-9--9--10-10---|--------10-10-9--9--10-10--|--------10-10-9--9----------|
|-0--0----------------------|--0--0---------------------|--0--0----------------------|


Main Riff
|---------------------------|----------------------------|----------------------------|
|---------------------------|----------------------------|----------------------------|
|0--------------------------|----------------------------|----------------------------|
|0--------------------------|----------------------------|----------------------------|
|-10-9--------10-7----------|--10-9--9-----10-7----------|--10-9--------10-7----------|
|-8--7-----0--8--5-----0----|--8--7--7--0--8--5-----0----|--8--7-----0--8--5-----0----|

|---------------------------|--------------------------|------------------------------|
|---------------------------|--------------------------|--5-----3---------------------|
|---------------------------|--------------------------|--------------5-----4-----2---|
|---------------------------|------------5-------------|------------------------------|
|-10-9--9-----10-7----------|--10-5------3--3----------|------------------------------|
|-8--7--7--0--8--5-----0----|--8--3---------1----------|------------------------------|

|----------------------------|----------------------------|---------------------------|
|----------------------------|----------------------------|---------------------------|
|----------------------------|----------------------------|---------------------------|
|----------------------------|----------------------------|-----5-----4-----3--2------|
|--10-9--------10-7----------|--10-9--9-----10-7-----5----|--5--3-----2-----1--0--6---|
|--8--7-----0--8--5-----0----|--8--7--7--0--8--5-----3----|--3--------------------4---|

|---------------||----------|
|---------------||----------|
|--------------o||----------|
|--------------o||--5--4----|
|--5--4--3--2---||--3--2----|
|--3--2--1--0---||----------|


Pre Verse
PM-----------     ------------------       ------------        ------------------
|----------------------------------------|--------------------------------------------|
|-------------8~---------------------8~--|--------------8~------------------------8~--|
|o------------7~---------------------7~--|--------------7~------------------------7~--|
|o------------6~---------------------6~--|--------------6~------------------------6~--|
|-------------7~---------------------7~--|--------------7~------------------------7~--|
|-0--0-----0-------0--0-----0-----0------|--0--0-----0----------0--0-----0-----0------|

PM------------    ------------------      ------------
|----------------------------------------|------------------------------------------||
|-------------8~---------------------8~--|--------------8-------8-------------------||
|-------------7~---------------------7~--|--------------7-------7------------------o||
|-------------6~---------------------6~--|--------------6-------6------------------o||
|-------------7~---------------------7~--|--------------7-------7-------------------||
|-0--0-----0-------0--0-----0-----0------|--0-----0---------------------------------||

PM------------
|----------------------------------------------------|
|--------------8-----------8-------------------------|
|--------------7-----------7-------------------------|
|--------------6-----------6-------------------------|
|--------------7-----------7-------------------------|
|--0--0-----0----------------------------------------|


Verse
Gtr 1
PM----------------------------------------------------------------
|---------------------------------|---------------------------------|
|---------------------------------|---------------------------------|
|o-------------------------------o|---------------------------------|
|o-------------------------------o|---------------------------------|
|---------------------------------|---------------------------------|
|--0-0-0-0-0---0---0---0---0---0--|--0-0-0--0-0---0---0-------------|

Gtr 2
 Harmonics********************************************************
|---------------------------------|---------------------------------|
|---------------------------------|---------------------------------|
|o-------------------------------o|---------------------------------|
|o-------------------------------o|---------------------------------|
|---------------------------------|---------------------------------|
|--7-7-7-7-7---9---9---9---9---9--|--7-7-7-7-7---9---9--------------|

|--------------------------------------------------|
|--------------------------------------------------|
|o9--9-----9-----9-----9-----9-----9-----9--------o|
|o9--7-----9-----9-----9-----9-----9-----9--------o|
|-7--7-----7-----7-----7-----7-----7-----7---------|
|-0--0---------------------------------------------|

|--------------------------------------------------|||--------------|
|--------------------------------------------------|||--------------|
|o8s-9-----9-----9-----9-----9-----9-----9-----x--o|||o------------o|
|o8s-9-----9-----9-----9-----9-----9-----9-----x--o|||o------------o|
|-6s-7-----7-----7-----7-----7-----7-----7-----x---|||-6--3s-6--3s--|
|-0--0---------------------------------------------|||-4--1s-4--1s--|


Chorus
|-------|--5----|
|-------|--5----|
|--2----|--2----|
|--2----|--2----|
|--0----|-------|
|-------|-------|

|----------------------------|----------------------------|----------------------------|
|----------------------------|----------------------------|----------------------------|
|--7--7--7--7--7--7--7--7----|--7--7--7--7--7--7--7--7----|----------------------------|
|--7--7--7--7--7--7--7--7----|--7--7--7--7--7--7--7--7----|-----------7-----------7----|
|--5--5--5--5--5--5--5--5----|--5--5--5--5--5--5--5--5----|--6--------5--6--------5----|
|----------------------------|----------------------------|--4-----------4-------------|

|----------------------------|----------------------------|----------------------------|
|----------------------------|----------------------------|----------------------------|
|----------------------------|----------------------------|----------------------------|
|-----------------------7----|-----------7-----------7----|-----------7--------7-------|
|--6--6--6--7--6--------5----|--6--------5--6--------5----|--6--------5--6-----5-------|
|--4--4--4--5--4-------------|--4-----------4-------------|--4-----------4-------------|

|----------------------------|----------------------------|
|----------------------------|----------------------------|
|--9--9--9--9--9--9--9--9----|--4--4--4--4--4--4--4--4----|
|--9--9--9--9--9--9--9--9----|--4--4--4--4--4--4--4--4----|
|--7--7--7--7--7--7--7--7----|--2--2--2--2--2--2--2--2----|
|----------------------------|----------------------------|

                              PM--------------------------
|----------------------------|----------------------------|
|----------------------------|----------------------------|
|--7-------------------------|----------------------------|
|--7--------7--7--------7----|----------------------------|
|--5--------7--7--------7----|----------------------------|
|-----------5--5--------5----|--5--5--5--5--5--5--5--5----|

                              PM--------------------------
|----------------------------|----------------------------|----------------|
|----------------------------|----------------------------|----------------|
|--7-------------------------|----------------------------|--7--7----------|
|--7--------7--7--------7----|----------------------------|--7--7--7--7----|
|--5--------7--7--------7----|----------------------------|--5--5--7--7----|
|-----------5--5--------5----|--5--5--5--5--5--5--5--5----|--------5--5----|

|----------------|----------------------------|-------||---------------|
|----------------|----------------------------|-------||---------------|
|----------------|----------------------------|-------||o7--7--2--2----|
|--4--4--2--2----|--4--------------------2----|--(2)--||o7--7--2--2----|
|--4--4--2--2----|--4-----------2--3--4-------|-------||-5--5--0--0----|
|--2--2--0--0----|--2-------------------------|-------||---------------|

|--5--5--5--5--5--5--5--5---||----------------|----------------|
|--5--5--5--5--5--5--5--5---||----------------|----------------|
|--2--2--2--2--2--2--2--2--o||--7--7----------|----------------|
|--2--2--2--2--2--2--2--2--o||--7--7--7--7----|--4--4--2--2----|
|--0--0--0--0--0--0--0--0---||--5--5--7--7----|--4--4--2--2----|
|---------------------------||--------5--5----|--2--2--0--0----|

|----------------------------|-------|----------------------------|-------|
|----------------------------|-------|----------------------------|-------|
|----------------------------|-------|--7-------------------------|-------|
|--4--------------------2----|--(2)--|--7--------7--7--------7----|--7----|
|--4-----------2--3--4-------|-------|--5--------7--7--------7----|--7----|
|--2-------------------------|-------|-----------5--5--------5----|--5----|


Go into Main riff/pre-verse/verse and chorus again Then main riff with different ending

|----------|
|----------|
|----------|
|--5--4----|
|--3--2----|
|----------|



Pre Verse
PM-----------     ------------------       ----------           ----------------
|----------------------------------------|--------------------------------------------|
|-------------8~---------------------8~--|--------------8~------------------------8~--|
|o------------7~---------------------7~--|--------------7~------------------------7~--|
|o------------6~---------------------6~--|--------------6~------------------------6~--|
|-------------7~---------------------7~--|--------------7~------------------------7~--|
|-0--0-----0-------0--0-----0-----0------|--0--0-----0----------0--0-----0-----0------|

PM------------    ------------------      ------------
|----------------------------------------|------------------------------------------||
|-------------8~---------------------8~--|--------------8-------8-------------------||
|-------------7~---------------------7~--|--------------7-------7------------------o||
|-------------6~---------------------6~--|--------------6-------6------------------o||
|-------------7~---------------------7~--|--------------7-------7-------------------||
|-0--0-----0-------0--0-----0-----0------|--0-----0---------------------------------||

PM------------
|----------------------------------------------------|
|--------------8-----------8-------------------------|
|--------------7-----------7-------------------------|
|--------------6-----------6-------------------------|
|--------------7-----------7-------------------------|
|--0--0-----0----------------------------------------|

PM----------- 
|----------------------------------------------------|
|--------------8-----------8-------------------------|
|--------------7-----------7-------------------------|
|--------------6-----------6-------------------------|
|--------------7-----------7-------------------------|
|--0--0-----0----------------------------------------|


Bridge (fast part)
|----------------------------------|---------------------------|
|----------------------------------|---------------------------|
|o---------------------------------|--------------------------o|
|o-9-----------------9-------------|-9---------------10--10---o|
|--7-7-7-7-8-7-7-7-7-7-7-7-8-7-7-7-|-7-7-7-7-8-7-7-7-8---8-----|
|----------------------------------|---------------------------|

|------------------|------------------|-----------------|-------------------|
|------------------|------------------|-----------------|-------------------|
|o-----------------|------------------|-----------------|-------------------|
|o-9-------9-------|-9-------10---10--|-9------9--------|-9-------10----10--|
|--7-7-8-7-7-7-8-7-|-7-7-8-7-8----8---|-7-7-8-7-7-7-8-7-|-7-7-8-7-8-----8---|
|------------------|------------------|-----------------|-------------------|

|----------------|----------------|----------------|-----------------|
|----------------|----------------|----------------|-----------------|
|--------4-------|----------------|--------4-------|----------------o|
|-----5-----5----|-(5)------------|-----5-----5----|-(5)------------o|
|--3-------------|-----5--5----5--|--3-------------|-----5--5----5---|
|----------------|-----3--3----3--|----------------|-----3--3----3---|


|-------------------|-5-5-5-5-5-5-5-5-|--------------------------|---------------|
|-------------------|-5-5-5-5-5-5-5-5-|--------------------------|---------------|
|o-2-2-2-2-2-2-2-2--|-2-2-2-2-2-2-2-2-|-4-------6--7-----4-------|--------------o|
|o-2-2-2-2-2-2-2-2--|-2-2-2-2-2-2-2-2-|-4-------6--7-----4-------|-----4--5-----o|
|--0-0-0-0-0-0-0-0--|-0-0-0-0-0-0-0-0-|-2-------4--5-----2-------|-----4--5------|
|-------------------|-----------------|--------------------------|-----2--3------|

|----------------------|---------------------||----------------------|
|----------------------|---------------------||----------------------|
|o-4--------6--7-------|--4-----------------o||--4--------6--7-------|
|o-4--------6--7-------|--4--------4--5-----o||--4--------6--7-------|
|--2--------4--5-------|--2--------4--5------||--2--------4--5-------|
|----------------------|-----------2--3------||----------------------|

(Who will catch you when you fall...)
PM-----------------------------------------------                Ring 
|----------------------------------------------------|-----0----|--(0)----|
|----------------------------------------------------|-----0----|--(0)----|
|----------------------------------------------------|-----1----|--(1)----|
|----------------------------------------------------|-----2----|--(2)----|
|--4-----4-----4--------4--------4-----4-----4-------|-----2----|--(2)----|
|--2-----2-----2--------2--------2-----2-----2-------|-----0----|--(0)----|


|------------------|--------------------|-----------------|
|------------------|--------------------|-----------------|
|o-----------------|-------------------o|-----------------|
|o-9-------9-------|-9-------10--10----o|-9-------9-------|
|--7-7-8-7-7-7-8-7-|-7-7-8-7-8---8------|-7-7-8-7-7-7-8-7-|
|------------------|--------------------|-----------------|

Trill pick/or just pick slide
|----------------------------------------------------|
|----------------------------------------------------|
|----------------------------------------------------|
|----------------------------------------------------|
|--7--7--6--6--5--5--4--4--3--3--2--2--1--1--0--0----|
|----------------------------------------------------|


Chugging riff :)                                                    
Harmonics                                                       ********
|-----------------|-----------------|----------------|----------5-5-5-5-|
|-----------------|-----------------|----------------|----------5-5-5-5-|
|-----------------|-----------------|----------------|------------------|
|-----------------|-----------------|----------------|------------------|
|-2-5-4-2-4---4-5-|-2-5-4-2-4-5-7-9-|-2-5-4-2-4--4-5-|-2-5-4-2----------|
|-0-3-2-0-2---2-3-|-0-3-2-0-2-3-5-7-|-0-3-2-0-2--2-3-|-0-3-2-0----------|

|-----------------|-----------------|-----------------|------------------|
|-----------------|-----------------|-----------------|------------------|
|-----------------|-----------------|-----------------|------------------|
|-----------------|-----------------|-----------------|------------------|
|-2-5-4-2-4---4-5-|-2-5-4-2-4-5-7-9-|-2-5-4-2-4---4-5-|-2-5-4-2-4-5-7-9--|
|-0-3-2-0-2---2-3-|-0-3-2-0-2-3-5-7-|-0-3-2-0-2---2-3-|-0-3-2-0-2-3-5-7--|


Main Riff
|---------------------------|----------------------------|----------------------------|
|---------------------------|----------------------------|----------------------------|
|---------------------------|----------------------------|----------------------------|
|---------------------------|----------------------------|----------------------------|
|-10-9--------10-7----------|--10-9--9-----10-7----------|--10-9--------10-7----------|
|-8--7-----0--8--5-----0----|--8--7--7--0--8--5-----0----|--8--7-----0--8--5-----0----|

|---------------------------|--------------------------|------------------------------|
|---------------------------|--------------------------|--5---5---3-------------------|
|---------------------------|--------------------------|--------------5----4----2-----|
|---------------------------|------------5-------------|------------------------------|
|-10-9--9-----10-7----------|--10-5------3--3----------|------------------------------|
|-8--7--7--0--8--5-----0----|--8--3---------1----------|------------------------------|
                                                                                        

|---------------------------|----------------------------|----------------------------|
|---------------------------|----------------------------|----------------------------|
|---------------------------|----------------------------|----------------------------|
|---------------------------|----------------------------|---5----4----3--2-----------|
|-10-9--------10-7----------|--10-9--9-----10-7-----5----|-5-3----2----1--0--6--------|
|-8--7-----0--8--5-----0----|--8--7--7--0--8--5-----3----|-3-----------------4--------|

PM-------------
|--------------||--------------|
|--------------||--------------|
|--------------||o------------o|
|--------------||o------------o|
|--5--4--3--2--||-6--3s-6--3s--|
|--3--2--1--0--||-4--1s-4--1s--|


Outro Chorus
|-------|--5----|----------------------------|----------------------------|
|-------|--5----|----------------------------|----------------------------|
|--2----|--2----|--7--7--7--7--7--7--7--7----|--7--7--7--7--7--7--7--7----|
|--2----|--2----|--7--7--7--7--7--7--7--7----|--7--7--7--7--7--7--7--7----|
|--0----|-------|--5--5--5--5--5--5--5--5----|--5--5--5--5--5--5--5--5----|
|-------|-------|----------------------------|----------------------------|

|------------------|---------------------|------------------|------------------|
|------------------|---------------------|------------------|------------------|
|------------------|---------------------|------------------|------------------|
|-------7-------7--|------------------7--|-------7-------7--|-------7----7-----|
|-6-----5--6----5--|-6--6--6--7--6----5--|-6-----5--6----5--|-6-----5-6--5-----|
|-4--------4-------|-4--4--4--5--4-------|-4--------4-------|-4-------4--------|
      
                                                         PM---------------
|-----------------|-----------------|-------------------|-----------------|
|-----------------|-----------------|-------------------|-----------------|
|-9-9-9-9-9-9-9-9-|-4-4-4-4-4-4-4-4-|-7-----------------|-----------------|
|-9-9-9-9-9-9-9-9-|-4-4-4-4-4-4-4-4-|-7------7-7------7-|-----------------|
|-7-7-7-7-7-7-7-7-|-2-2-2-2-2-2-2-2-|-5------7-7------7-|-----------------|
|-----------------|-----------------|--------5-5------5-|-5-5-5-5-5-5-5-5-|

                        PM--------------
|----------------------|-----------------|---------|---------|
|----------------------|-----------------|---------|---------|
|-7--------------------|-----------------|-7-7-----|---------|
|-7--------7-7-------7-|-----------------|-7-7-7-7-|-4-4-2-2-|
|-5--------7-7-------7-|-----------------|-5-5-7-7-|-4-4-2-2-|
|----------5-5-------5-|-5-5-5-5-5-5-5-5-|-----5-5-|-2-2-0-0-|


|----------------------|-------||---------------|--5--5--5--5--5--5--5--5---|
|----------------------|-------||---------------|--5--5--5--5--5--5--5--5---|
|----------------------|-------||o7--7--2--2----|--2--2--2--2--2--2--2--2--o|
|-4---------------2----|--2----||o7--7--2--2----|--2--2--2--2--2--2--2--2--o|
|-4------2--3--4-------|-------||-5--5--0--0----|--0--0--0--0--0--0--0--0---|
|-2--------------------|-------||---------------|---------------------------|

|----------|----------|----------------------|-----------------|
|----------|----------|----------------------|-7-7-7-7-7-7-7-7-|
|-7-7------|----------|----------------------|-7-7-7-7-7-7-7-7-|
|-7-7-7-7--|-4-4-2-2--|-4---------------2~---|-7-7-7-7-7-7-7-7-|
|-5-5-7-7--|-4-4-2-2--|-4------2--3--4-------|-5-5-5-5-5-5-5-5-|
|-----5-5--|-2-2-0-0--|-2--------------------|-----------------|

|----------------------------|----------------------------|----------------------------|
|----------------------------|----------------------------|----------------------------|
|--7--7--7--7--7--7--7--7----|--4--4--4--4--4--4--4--4----|--4--4--4--4--4--4--4--4----|
|--7--7--7--7--7--7--7--7----|--4--4--4--4--4--4--4--4----|--4--4--4--4--4--4--4--4----|
|--5--5--5--5--5--5--5--5----|--2--2--2--2--2--2--2--2----|--2--2--2--2--2--2--2--2----|
|----------------------------|----------------------------|----------------------------|


Main riff
|---------------------------|----------------------------|----------------------------|
|---------------------------|----------------------------|----------------------------|
|0--------------------------|----------------------------|----------------------------|
|0--------------------------|----------------------------|----------------------------|
|-10-9--------10-7----------|--10-9--9-----10-7----------|--10-9--------10-7----------|
|-8--7-----0--8--5-----0----|--8--7--7--0--8--5-----0----|--8--7-----0--8--5-----0----|

|------------------|--------------------|-----------------|---------------------|
|------------------|--------------------|-----------------|---------------------|
|o-----------------|--------------------|-----------------|--------------------o|
|o-----------------|--------------------|-----------------|--------------------o|
|-10-9------10-7---|-10-9-9------10-7---|-10-9-----10-7---|-10-9-9-----10-7-----|
|-8--7--0---8--5-0-|-8--7-7--0---8--5-0-|-8--7--0--8--5-0-|-8--7-7--0--8--5---0-|


Outro 
PM-----------     ------------------       ------------        ------------------ 
|----------------------------------------|--------------------------------------------|
|-------------8~---------------------8~--|--------------8~------------------------8~--|
|o------------7~---------------------7~--|--------------7~------------------------7~--|
|o------------6~---------------------6~--|--------------6~------------------------6~--|
|-------------7~---------------------7~--|--------------7~------------------------7~--|
|-0--0-----0-------0--0-----0-----0------|--0--0-----0----------0--0-----0-----0------|

PM-----------     ------------------       ------------        ------------------  
|----------------------------------------|--------------------------------------------|
|-------------8~---------------------8~--|--------------8~------------------------8~--|
|o------------7~---------------------7~--|--------------7~------------------------7~--|
|o------------6~---------------------6~--|--------------6~------------------------6~--|
|-------------7~---------------------7~--|--------------7~------------------------7~--|
|-0--0-----0-------0--0-----0-----0------|--0--0-----0----------0--0-----0-----0------|



Enjoy
Please rate and leave constructive comments
Credit where its due Adapted from CHRiS HARRiSON: chris@velvetdomain.freeserve.co.uk



Добавлено: 01.08.2015
Другие материалы по этой песне:

Страница создана 27.02.2012
http://primanota.ru/wildhearts/inglorious-chords.htm
Привет, Гость.
Предлагаем пройти революционный курс по гитаре.
Подарок от PrimaNota.Ru, забирай!