PrimaNota.ru - самый крупный в мире бесплатный архив песенных текстов, аккордов, табулатур и нот


Wildhearts - Cold Patootie Tango Caprice - таба, видео

Регистрация Запомнить меня
Войти через:  Facebook Google Twitter Vk Yandex Mail.ru

Wildhearts - Cold Patootie Tango Caprice - таба, видео

Печатать
Просмотров: 84
The Wildhearts
Cold Patootie Tango/Caprice
P.H.U.Q

Tuning Eb
Be careful with the timings, its not all 4:4 bars. I'll tab bar duration as (4:4) 
etc

_____________________________________________________________________________________________________________

Cold Patootie Tango

Intro
Clean riff x2                           

 (3:4)          (4:4)             (3:4)              
e|-------------|-----------------|-------------|-------------------|
B|---5-5-4-5-7-|---5-5-4-5-7-5---|---5-5-4-5-7-|-8-----8\7\5--7--8-|
G|-------------|-----------------|-------------|-------------------|
D|---5-5-4-5-7-|---5-5-4-5-7-5---|---5-5-4-5-7-|-8-----8\7\5--7--8-|
A|-------------|-----------------|-------------|-------------------|
E|-0-----------|-0---------------|-0-----------|----0--------------|

 (6:8)                        (2:4)
Gtr 1
e|-------------|-------------|--------|
B|-7-----5-----|-7-----5-----|-3-5-3--|
G|---0-----0---|---0-----0---|--------|
D|-----7-----5-|-----7-----5-|-3-5-3--|
A|-------------|-------------|--------|
E|-------------|-------------|--------|
                                      |
Gtr 2                                 |
e|-------------|-------------|--------|
B|-------------|-------------|--------|  
G|-----0-----0-|-----0-----0-|--------|
D|---4-----4---|---4-----4---|--------|
A|-2-----3-----|-2-----3-----|---3----|
E|-------------|-------------|-3---3--|
_____________________________________________________________________________________________________________

Dist riff kicks in

 (3:4)          (4:4)             (3:4) 
Gtr 1        
e|-------------|-----------------|-------------|---------------------|
B|-------------|-----------------|-------------|---------------------|
G|---9-9-8-9-11|---9-9-8-9-119---|---9-9-8-9-11|-12--12\11\10--11-12-|
D|-------------|-----------------|-------------|---------------------|
A|---7-7-6-7-9-|---7-7-6-7-9-7---|---7-7-6-7-9-|-10--10\9-\7---9--10-|
E|-0-----------|-0---------------|-0-----------|---------------------|
                                                                     |
Gtr 2                                                                |
e|-------------|-----------------|-------------|---------------------|
B|-------------|-----------------|-------------|---------------------|
G|-------------|-----------------|-------------|---------------------|
D|-2-----------|-2---------------|-2-----------|-2-------------------|
A|-2-----------|-2---------------|-2-----------|-2-------------------|
E|-0-----------|-0---------------|-0-----------|-0-------------------|

 (6:8)                                                               (2:4)
Gtr 1
e|---------------------------------|---------------------------------|--------|
B|---------------------------------|---------------------------------|--------|
G|-11----11---11---9----9----9-----|-11----11---11---9----9----9-----|-7-9-7--|
D|---------------------------------|---------------------------------|--------|
A|-9-----9----9----7----7----7-----|-9-----9----9----7----7----7-----|-5-7-5--|
E|---------------------------------|---------------------------------|--------|
                                                                              |
Gtr 2                                                                         |
e|---------------------------------|---------------------------------|--------|
B|---------------------------------|---------------------------------|--------|
G|---------------------------------|---------------------------------|--------|
D|-4-----5----5----5----5----5-----|-4-----5----5----5----5----5-----|---5----|
A|-2-----3----3----3----3----3-----|-2-----3----3----3----3----3-----|-5-3-5--|
E|---------------------------------|---------------------------------|-3---3--|
                                                                              |
Gtr 3                                                                         |
e|-12-12-0-12-12-0-12-12-0-12-12-0-|-12-12-0-12-12-0-12-12-0-12-12-0-|-0------|
B|---------------------------------|---------------------------------|--------|
G|---------------------------------|---------------------------------|--------|
D|---------------------------------|---------------------------------|--------|
A|---------------------------------|---------------------------------|--------|
E|---------------------------------|---------------------------------|--------|

 (3:4)          (4:4)             (3:4) 
Gtr 1        
e|-------------|-----------------|-------------|---------------------|
B|-------------|-----------------|-------------|---------------------|
G|---9-9-8-9-11|---9-9-8-9-119---|---9-9-8-9-11|-12--12\11\10--11-12-|
D|-------------|-----------------|-------------|---------------------|
A|---7-7-6-7-9-|---7-7-6-7-9-7---|---7-7-6-7-9-|-10--10\9-\7---9--10-|
E|-0-----------|-0---------------|-0-----------|---------------------|
                                                                     |
Gtr 2                                                                |
e|-------------|-----------------|-------------|---------------------|
B|-------------|-----------------|-------------|---------------------|
G|-------------|-----------------|-------------|---------------------|
D|-2-----------|-2---------------|-2-----------|-2-------------------|
A|-2-----------|-2---------------|-2-----------|-2-------------------|
E|-0-----------|-0---------------|-0-----------|-0-------------------|

 (6:8)
Gtr 1                                                                
e|---------------------------------|---------------------------------|
B|---------------------------------|---------------------------------|
G|-11----11---11---9----9----9-----|-11----11---11---9----9----9-----|
D|---------------------------------|---------------------------------|
A|-9-----9----9----7----7----7-----|-9-----9----9----7----7----7-----|
E|---------------------------------|---------------------------------|
                                                                     |
Gtr 2                                                                |
e|---------------------------------|---------------------------------|
B|---------------------------------|---------------------------------|
G|---------------------------------|---------------------------------|
D|-4-----5----5----5----5----5-----|-4-----5----5----5----5----5-----|
A|-2-----3----3----3----3----3-----|-2-----3----3----3----3----3-----|
E|---------------------------------|---------------------------------|
                                                                     |
Gtr 3                                                                |
e|-12-12-0-12-12-0-12-12-0-12-12-0-|-12-12-0-12-12-0-12-12-0-12-12-0-|
B|---------------------------------|---------------------------------|
G|---------------------------------|---------------------------------|
D|---------------------------------|---------------------------------|
A|---------------------------------|---------------------------------|
E|---------------------------------|---------------------------------|
_____________________________________________________________________________________________________________

      "Hey,          be        one of us,       Check your   moods    there by the door"
      "Smile,        fit,      shoot the shit,  Don't step   out      our social law"
Gtr 1                         (7:8)            (6:8)         (3:8)    (2:4)  (6:8)
PM______        ______                 ______       __    __      __
e|-------------|-------------|-----------------|-------------|-------|-------|-------------|-------------|
B|-------------|-------------|-----------------|-------------|-------|-------|-------------|-------------|
G|-------------|-------------|-----------------|-------------|-------|-------|-------------|-------------|
D|-------2-----|-------2-----|-2--4--2---------|-2-----2-----|-2-----|-2--2--|-4-5-5-5-5-5-|-4-5-5-5-5-5-|
A|-------2-----|-------2-----|-2--4--2---------|-2-----2-----|-2-----|-2--2--|-2-3-3-3-3-3-|-2-3-3-3-3-3-|
E|-000-0-0-----|-000-0-0-----|-0--2--0---000-0-|-0---0-0---0-|-0---0-|-0--0--|-------------|-------------|
                                                                                                         | x2
Gtr 2                                                                                                    |
e|-------------|-------------|-----------------|-------------|-------|-------|-------------|-------------|
B|-------------|-------------|-----------------|-------------|-------|-------|-------------|-------------|
G|-------12----|-------12----|-12-14-12--------|-12----12----|-12----|-12-12-|-------------|-------------|
D|-------------|-------------|-----------------|-------------|-------|-------|-4-5-5-5-5-5-|-4-5-5-5-5-5-|
A|-------10----|-------10----|-10-12-10--------|-10----10----|-10----|-10-10-|-2-3-3-3-3-3-|-2-3-3-3-3-3-|
E|-000-0-------|-000-0-------|-----------000-0-|-----0-----0-|-----0-|-------|-------------|-------------|

_____________________________________________________________________________________________________________

Both
  "Thanks, but  no thanks,    here I'll     hang on"
e|-------0-----|-------0-----|-------0-----|-------0-----|
B|---------0---|---------0---|---------0---|---------0---|
G|-----4-----4-|-----5-----5-|-----7-----7-|-----4-----4-|
D|---4---------|---5---------|---7---------|---4---------|
A|-2-----------|-3-----------|-5-----------|-2-----------|
E|-------------|-------------|-------------|-------------|

 "Outsiders     be     my      drug "      (4:4)
e|-------0-----|-------0-----|-------0-----|-----------------|-----------------|
B|---------0---|---------0---|-----0---0---|-----------------|-----------------|
G|-----5-----5-|-----7-----7-|-----------7-|-----------------|-----------------|
D|---5---------|---7---------|---7---------|-2---------------|-(2)-------------|
A|-3-----------|-5-----------|-6-----------|-2---------------|-(2)-------------|
E|-------------|-------------|-------------|-0---------------|-(0)-------------|
_____________________________________________________________________________________________________________

Caprice 

Intro
e|-----------------|-----------------|    |-----------------|-----------------|
B|-----------------|-----------------|    |-----------------|-----------------|
G|-9--99-----------|-77------66------|x3  |-77------88------|-(9)-------------|
D|-9--98-----------|-77--44--66--66--|    |-77--77--88--999-|-(9)-------------|
A|-7--77-----------|-55--44--44--66--|    |-55--77--66--997-|-(7)-------------|
E|-0--00-----------|-----22------44--|    |-----55------770-|-(0)-------------|

e|----------------------------------|----------------------------------|
B|----------------------------------|----------------------------------|
G|----------------------------------|----------------------------------|
D|---------------2------------------|---------------2--------2---------|
A|---------------2------------------|---------------2--------2---------|
E|-5-3-2--5-3-2--0------------------|-5-3-2--5-3-2--0--------0---------|

                                    (3:4)                   (7:8)
e|----------------------------------|----------------------|---------------|
B|----------------------------------|----------------------|---------------|
G|----------------------------------|----------------------|---------------|
D|----------------------------------|-------------------2--|---2-----------|
A|----------------------------------|-------------2-----2--|---2-----------|
E|-5-3-2-5-----5-3-2-5-----5-3-2-5--|---5-3-2-3-5---5-3-0--|---0-----------|
_____________________________________________________________________________________________________________

Verse 1 Main riff (two ways to play it, both shown)
  (4:4)
e|-----------------------------------|-----------------------------------|
B|-----------------------------------|-----------------------------------|
G|-----------------------------------|-----------------------------------| method 1
D|-----------------------------------|-----------------------------------|
A|----------2/3-----3/4-----4/5------|----------2/3-----3/4-----4/5------|
E|-0----0-0-----0-0-----0-0-----0-0--|-0----0-0-----0-0-----0-0-----0----|
                                                                         | x4 
                                                                         |
e|-----------------------------------|-----------------------------------|
B|-----------------------------------|-----------------------------------|
G|-----------------------------------|-----------------------------------| method 2
D|-----------------------------------|-----------------------------------|
A|-----------------------------------|-----------------------------------|
E|-0----0-0-7b--0-0-8b--0-0-9b--0-0--|-0----0-0-7b--0-0-8b--0-0-9b--0----|

"Mix-up start, stop, start. Wait a minute, shut down"
e|-----------------------------------|-----------------------------------|
B|-----------------------------------|-----------------------------------|
G|-----------------------------------|-----------------------------------|
D|-2-------2-------2-----2--2--2-----|-----2-2-2-2-----------------------|
A|-2-------2-------2-----2--2--2-----|-----2-2-2-2-----------------------|
E|-0-------0-------0-----0--0--0-----|-----0-0-0-0-----------------------|

e|-----------------------------------|-----------------------------------|
B|-----------------------------------|-----------------------------------|
G|-----------------------------------|-----------------------------------|
D|-----------------------------------|-----------------------------------|
A|----------2/3-----3/4-----4/5------|----------2/3-----3/4-----4/5------|
E|-0----0-0-----0-0-----0-0-----0-0--|-0----0-0-----0-0-----0-0-----0----|

"Losing the plot, losing the plot, losing the plot"                      (3:4)
                "'til there's nothing to see but the ground"              PM___________
e|-----------------------------------|-----------------------------------|-------------|
B|-----------------------------------|-----------------------------------|-Triplet-----|
G|-----------------------------------|-----------------------------------|---feel------|
D|-2-2-2-2----2-2-2-2----2-2-2-2-----|-----2-2-2-2-----------------------|-------------|
A|-2-2-2-2----2-2-2-2----2-2-2-2-----|-----2-2-2-2-----------------------|-------------|
E|-0-0-0-0----0-0-0-0----0-0-0-0-----|-----0-0-0-0-----------------------|---00000000--|

 (4:4)
e|-----------------------------------|-----------------------------------|
B|-----------------------------------|-----------------------------------|
G|-----------------------------------|-----------------------------------| x2
D|-----------------------------------|-----------------------------------|
A|----------2/3-----3/4-----4/5------|----------2/3-----3/4-----4/5------|
E|-0----0-0-----0-0-----0-0-----0-0--|-0----0-0-----0-0-----0-0-----0----|
_____________________________________________________________________________________________________________

Pre chorus

"Head inside a rut, it's like my mind is shut. I hope I cope this time"
e|-----------------|-----------------|-----------------|-----------------|
B|-----------------|-----------------|-----------------|-----------------|
G|-5--5-5------x---|-5-5-5-5---------|-7---7---7---7---|-----------------|
D|-5--5-5-5-5---x--|-5-5-5-5-5-5-5-5-|-7---7---7---7---|-3---3---3---3---|
A|-3--3-3-5-5----x-|-3-3-3-3-5-5-5-5-|-5---5---5---5---|-3---3---3---3---|
E|--------3-3-----x|---------3-3-3-3-|-----------------|-1---1---1---1---|

                   "Drink and drugs will only amplify"
                                      "I've still got my music so let's give it a try"
                   (2:4)      (4:4)                               (2:4)
e|-----------------|---------|-----------------|-----------------|---------|
B|-------8---------|-(7)-----|-------6-------5-|-----------------|---------|
G|-9---------7-----|-(8)-----|-----5-----5-----|-4-4-4-7---2---3-|-5-------|
D|-9-------------9-|-(9)-----|---5---------5---|-4-4-4-7---2---5-|-5-2-3-4-|
A|-7---------------|---------|-3---------------|-2-2-2-5---0---3-|-3-2-3-4-|
E|-0---------------|---------|-----------------|-----------------|---0-1-2-|

"Sounds that can soothe you.          Well, sounds that can move you"
 (4:4)
Gtr 1
e|-----------------|-----------------|-----------------|-----------------|
B|-----------------|-----------------|-----------------|---------3-------|
G|-----------------|-----------------|-5-5-5---5-5-5---|-----3-----3-----|
D|-----------------|-----------------|-5-5-5---5-5-5---|---3---3-----3---|
A|-5-5-7---5-5-7-5-|-3-3-5---3-3-5-3-|-3-3-3---3-3-3-0-|-1-------------1-|
E|-3-3-3---3-3-3-3-|-1-1-1---1-1-1-1-|-------3---------|-----------------|
                                                                         |
Gtr 2                                                                    |
e|-----------------|-----------------|-----------------|-----------------|
B|-----------------|-----------------|-----------------|-----------------|
G|-----------------|-----------------|-5-5-5-5-5-5-5-5-|-3-3-3-3-3-3-3-3-|
D|-5-5-5-5-5-5-5-5-|-3-3-3-3-3-3-3-3-|-5-5-5-5-5-5-5-5-|-3-3-3-3-3-3-3-3-|
A|-5-5-5-5-5-5-5-5-|-3-3-3-3-3-3-3-3-|-3-3-3-3-3-3-3-3-|-1-1-1-1-1-1-1-1-|
E|-3-3-3-3-3-3-3-3-|-1-1-1-1-1-1-1-1-|-----------------|-----------------|

"And improve you child"
Gtr 1               PM_______________
e|-----------------|-----------------|-----------------|
B|-----------------|-----------------|-----------------|
G|-----------------|-----------------|---x-x-x-x-x-x-x-|
D|-3-3-3-3-3-3-3-3-|-3-3-3-3-3-3-3-3-|-3-x-x-x-x-x-x-x-|
A|-3-3-3-3-3-3-3-3-|-3-3-3-3-3-3-3-3-|-3-x-x-x-x-x-x-x-|
E|-1-1-1-1-1-1-1-1-|-1-1-1-1-1-1-1-1-|-1-x-x-x-x-x-x-x-|
                                                       |
Gtr 2                                                  |
e|-----------------|-----------------|-----------------|
B|-----------------|-----------------|-----------------|
G|-----------------|-----------------|---x-x-x-x-x-x-x-|
D|-3-3-3-3-3-3-3-3-|-3-3-3-3-3-3-3-3-|-3-x-x-x-x-x-x-x-|
A|-3-3-3-3-3-3-3-3-|-3-3-3-3-3-3-3-3-|-3-x-x-x-x-x-x-x-|
E|-1-1-1-1-1-1-1-1-|-1-1-1-1-1-1-1-1-|-1-x-x-x-x-x-x-x-|
_____________________________________________________________________________________________________________

Chorus
  "Caprice                            Caprice"
Both
e|-----------------|-----------------|-----------------|-----------------|
B|-----------------|-----------------|-----------------|-----------------|
G|-----------------|-7---7-7-7-5-----|-----------------|-5---5---5-5-5---|
D|-x-5-5---5---5---|-7---7-7-7-5-----|-3---3---3-3-3-3-|-5---5---5-5-5---|
A|-x-5-5---5---5---|-5---5-5-5-3-----|-3---3---3-3-3-3-|-3---3---3-3-3---|
E|-x-3-3---3---3---|--------------0--|-1---1---1-1-1-1-|---------------0-|

  "Caprice                            Caprice"
e|-----------------|-----------------|-----------------|-----------------|
B|-----------------|-----------------|-----------------|-----------------|
G|-----------------|-7---7-7-7-5-----|-----------------|-5---5---5-5-5-5-|
D|-5---5---5-5-5-5-|-7---7-7-7-5-----|-3---3---3-3-3-3-|-5---5---5-5-5-5-|
A|-5---5---5-5-5-5-|-5---5-5-5-3-----|-3---3---3-3-3-3-|-3---3---3-3-3-3-|
E|-3---3---3-3-3-3-|--------------0--|-1---1---1-1-1-1-|-----------------|

 "Caprice"          PM_______________
e|-----------------|-----------------|
B|-----------------|-----------------|
G|-7-7-7-7-7-7-7-7-|-7-7-7-7-7-7-7-7-|
D|-7-7-7-7-7-7-7-7-|-7-7-7-7-7-7-7-7-|
A|-5-5-5-5-5-5-5-5-|-5-5-5-5-5-5-5-5-|
E|-----------------|-----------------|
_____________________________________________________________________________________________________________

Octave riff
     PM___     __    __          ____     __    __
e|--------------------------|--------------------------|
B|--------------------------|--------------------------|
G|-9--------10----7-----9/10|\9--------12----10----9/10| x2
D|--------------------------|--------------------------|
A|-7--------8-----5-----7/8-|\7--------10----8-----7/8-|
E|----0--0-----0-----0------|----0--0-----0-----0------|
_____________________________________________________________________________________________________________

Verse 2

e|-----------------------------------|-----------------------------------|
B|-----------------------------------|-----------------------------------|
G|-----------------------------------|-----------------------------------| x2
D|-----------------------------------|-----------------------------------|
A|----------2/3-----3/4-----4/5------|----------2/3-----3/4-----4/5------|
E|-0----0-0-----0-0-----0-0-----0-0--|-0----0-0-----0-0-----0-0-----0----|

"Help      me      see   this pain      doesn't matter, I'm fine"
e|-----------------------------------|-----------------------------------|
B|-----------------------------------|-----------------------------------|
G|-----------------------------------|-----------------------------------|
D|-2-------2-------2-----2--2--2-----|-----2-2-2-2-----------------------|
A|-2-------2-------2-----2--2--2-----|-----2-2-2-2-----------------------|
E|-0-------0-------0-----0--0--0-----|-----0-0-0-0-----------------------|

e|-----------------------------------|-----------------------------------|
B|-----------------------------------|-----------------------------------|
G|-----------------------------------|-----------------------------------|
D|-----------------------------------|-----------------------------------|
A|----------2/3-----3/4-----4/5------|----------2/3-----3/4-----4/5------|
E|-0----0-0-----0-0-----0-0-----0-0--|-0----0-0-----0-0-----0-0-----0----|

"No-one gets me, I don't get me, No-one gets me, I don't get me"
                                                   "I just need a little time"
e|-----------------------------------|-----------------------------------|
B|-----------------------------------|-----------------------------------|
G|-----------------------------------|-----------------------------------|
D|-2-2-2-2----2-2-2-2----2-2-2-2-----|---2-2-2-2----2-2-2-2--------------|
A|-2-2-2-2----2-2-2-2----2-2-2-2-----|---2-2-2-2----2-2-2-2--------------|
E|-0-0-0-0----0-0-0-0----0-0-0-0-----|---0-0-0-0----0-0-0-0----------0-0-|

e|-----------------------------------|-----------------------------------|
B|-----------------------------------|-----------------------------------|
G|-----------------------------------|-----------------------------------|
D|-----------------------------------|-----------------------------------|
A|----------2/3-----3/4-----4/5------|----------2/3-----3/4-----4/5------|
E|-0----0-0-----0-0-----0-0-----0-0--|-0----0-0-----0-0-----0-0-----0----|
_____________________________________________________________________________________________________________

Pre chrous 

"Head inside a rut, the mental link is cut. I'm holding on for life"
e|-----------------|-----------------|-----------------|-----------------|
B|-----------------|-----------------|-----------------|-----------------|
G|-5--5-5------x---|-5-5-5-5---------|-7---7---7---7---|-----------------|
D|-5--5-5-5-5---x--|-5-5-5-5-5-5-5-5-|-7---7---7---7---|-3---3---3---3---|
A|-3--3-3-5-5----x-|-3-3-3-3-5-5-5-5-|-5---5---5---5---|-3---3---3---3---|
E|--------3-3-----x|---------3-3-3-3-|-----------------|-1---1---1---1---|

                   "No-one knows quite what to really say"
                                          "Guess they wouldn't make a difference anyway"
                   (2:4)      (4:4)                               (2:4)
e|-----------------|---------|-----------------|-----------------|---------|
B|-------8---------|-(7)-----|-------6-------5-|-----------------|---------|
G|-9---------7-----|-(8)-----|-----5-----5-----|-4-4-4-7---2---3-|-5-------|
D|-9-------------9-|-(9)-----|---5---------5---|-4-4-4-7---2---5-|-5-2-3-4-|
A|-7---------------|---------|-3---------------|-2-2-2-5---0---3-|-3-2-3-4-|
E|-0---------------|---------|-----------------|-----------------|---0-1-2-|

"Friends they can use you.            Well, Friends they can use you and abuse you child"
 (4:4)
Gtr 1
e|-----------------|-----------------|-----------------|-----------------|
B|-----------------|-----------------|-----------------|---------3-------|
G|-----------------|-----------------|-5-5-5---5-5-5---|-----3-----3-----|
D|-----------------|-----------------|-5-5-5---5-5-5---|---3---3-----3---|
A|-5-5-7---5-5-7-5-|-3-3-5---3-3-5-3-|-3-3-3---3-3-3-0-|-1-------------1-|
E|-3-3-3---3-3-3-3-|-1-1-1---1-1-1-1-|-------3---------|-----------------|
                                                                         |
Gtr 2                                                                    |
e|-----------------|-----------------|-----------------|-----------------|
B|-----------------|-----------------|-----------------|-----------------|
G|-----------------|-----------------|-5-5-5-5-5-5-5-5-|-3-3-3-3-3-3-3-3-|
D|-5-5-5-5-5-5-5-5-|-3-3-3-3-3-3-3-3-|-5-5-5-5-5-5-5-5-|-3-3-3-3-3-3-3-3-|
A|-5-5-5-5-5-5-5-5-|-3-3-3-3-3-3-3-3-|-3-3-3-3-3-3-3-3-|-1-1-1-1-1-1-1-1-|
E|-3-3-3-3-3-3-3-3-|-1-1-1-1-1-1-1-1-|-----------------|-----------------|

                
"But never be denied,                                   like the circles in the sky"    
Both
e|-----------------|-----------------|-----------------|-----------------|
B|-----------------|-----------------|-----------------|-----------------|
G|-----------------|-----------------|-7-7-7-7-7-5-5---|-----------------|
D|-3-3-3-3-3-3-3-3-|-5-5-5-5-5-5-5-5-|-7-7-7-7-7-5-5---|-3-3-3-3-3-3-3-3-|
A|-3-3-3-3-3-3-3-3-|-5-5-5-5-5-5-5-5-|-5-5-5-5-5-3-3---|-3-3-3-3-3-3-3-3-|
E|-1-1-1-1-1-1-1-1-|-3-3-3-3-3-3-3-3-|---------------0-|-1-1-1-1-1-1-1-1-|

                    "Heaven ain't rolling, rolling, rolling..."
e|-----------------|-----------------|-----------------|-----------------|
B|-----------------|-----------------|-----------------|-----------------|
G|-5-5-5-5-5-5-5-5-|-3-3-3-3-3-3-3-3-|-3-3-3-3-3-3-3-3-|-3-3-3-3-3-3-3-3-|
D|-5-5-5-5-5-5-5-5-|-3-3-3-3-3-3-3-3-|-3-3-3-3-3-3-3-3-|-3-3-3-3-3-3-3-3-|
A|-3-3-3-3-3-3-3-3-|-1-1-1-1-1-1-1-1-|-1-1-1-1-1-1-1-1-|-1-1-1-1-1-1-1-1-|
E|-----------------|-----------------|-----------------|-----------------|

 (3:4)
e|-------------|
B|-------------|
G|-3-----------|
D|-3-x-x-x-x-x-|
A|-1-x-x-x-x-x-|
E|---x-x-x-x-x-|
_____________________________________________________________________________________________________________

Chorus
  (4:4)
  "Caprice                            Caprice"
e|-----------------|-----------------|-----------------|-----------------|
B|-----------------|-----------------|-----------------|-----------------|
G|-----------------|-7---7-7-5-5-----|-----------------|-5---5---5-5-5---|
D|-x-5-5---5---5---|-7---7-7-5-5-----|-3---3---3-3-3-3-|-5---5---5-5-5---|
A|-x-5-5---5---5---|-5---5-5-3-3-----|-3---3---3-3-3-3-|-3---3---3-3-3---|
E|-x-3-3---3---3---|--------------0--|-1---1---1-1-1-1-|---------------0-|

  "Caprice                            Caprice"
e|-----------------|-----------------|-----------------|-----------------|
B|-----------------|-----------------|-----------------|-----------------|
G|-----------------|-7---7-7-5-5-----|-----------------|-5---5---5-5-5-5-|
D|-5---5---5-5-5-5-|-7---7-7-5-5-----|-3---3---3-3-3-3-|-5---5---5-5-5-5-|
A|-5---5---5-5-5-5-|-5---5-5-3-3-----|-3---3---3-3-3-3-|-3---3---3-3-3-3-|
E|-3---3---3-3-3-3-|--------------0--|-1---1---1-1-1-1-|-----------------|

 "Caprice"          
e|-----------------|-----------------|
B|-----------------|-----------------|
G|-7-7-7-7-7-7-7-7-|-7-7-7-7-7-7-7-7-|
D|-7-7-7-7-7-7-7-7-|-7-7-7-7-7-7-7-7-|
A|-5-5-5-5-5-5-5-5-|-5-5-5-5-5-5-5-5-|
E|-----------------|-----------------|
_____________________________________________________________________________________________________________

Outro Octave riff
     PM___     __    __          ____     __    __
e|--------------------------|--------------------------|
B|--------------------------|--------------------------|
G|-9--------10----7-----9/10|\9--------12----10----9/10|
D|--------------------------|--------------------------|
A|-7--------8-----5-----7/8-|\7--------10----8-----7/8-|
E|----0--0-----0-----0------|----0--0-----0-----0------|
                                                       |
Gtr 2                                                  | x4
PM_____________________________________________________|
e|--------------------------|--------------------------|
B|--------------------------|--------------------------|
G|--------------------------|--------------------------|
D|--------------------------|--------------------------|
A|-2--2--2--2--2--2--2--2---|-2--2--2--2--2--2--2--2---|
E|-0--0--0--0--0--0--0--0---|-0--0--0--0--0--0--0--0---|

Gtr 1
e|--------------------------|--------------------------|
B|--------------------------|--------------------------|
G|-9--9--9--10----7-----9/10|\9--9--9--12----10----9/10|
D|--------------------------|--------------------------|
A|-7--7--7--8-----5-----7/8-|\7--7--7--10----8-----7/8-|
E|--------------------------|--------------------------|
                                                       |
Gtr 2                                                  |
PM_____________________________________________________|
e|--------------------------|--------------------------|
B|--------------------------|--------------------------|
G|--------------------------|--------------------------|
D|-5--5--5--5--5--5--5--5---|-5--5--5--5--5--5--5--5---|
A|-3--3--3--3--3--3--3--3---|-3--3--3--3--3--3--3--3---|
E|--------------------------|--------------------------|

Gtr 1
e|--------------------------|--------------------------|
B|--------------------------|--------------------------|
G|-9--9--9--10----7-----9/10|\9--9--9--12----10----9/10|
D|--------------------------|--------------------------|
A|-7--7--7--8-----5-----7/8-|\7--7--7--10----8-----7/8-|
E|--------------------------|--------------------------|
                                                       |
Gtr 2                                                  |
PM_____________________________________________________|
e|--------------------------|--------------------------|
B|--------------------------|--------------------------|
G|--------------------------|--------------------------|
D|-3--3--3--3--3--3--3--3---|-3--3--3--3--3--3--3--3---|
A|-1--1--1--1--1--1--1--1---|-1--1--1--1--1--1--1--1---|
E|--------------------------|--------------------------|

Gtr 1
e|--------------------------|--------------------------|
B|--------------------------|--------------------------|
G|-9--9--9--10----7-----9/10|\9--9--9--12----10----9/10|
D|--------------------------|--------------------------|
A|-7--7--7--8-----5-----7/8-|\7--7--7--10----8-----7/8-|
E|--------------------------|--------------------------|
                                                       |
Gtr 2                                                  |
PM_____________________________________________________|
e|--------------------------|--------------------------|
B|--------------------------|--------------------------|
G|--------------------------|--------------------------|
D|--------------------------|--------------------------|
A|-2--2--2--2--2--2--2--2---|-2--2--2--2--2--2--2--2---|
E|-0--0--0--0--0--0--0--0---|-0--0--0--0--0--0--0--0---|

Gtr 1
e|--------------------------|--------------------------|
B|--------------------------|--------------------------|
G|-9--9--9--10----7-----9/10|\9--9--9--12----10----9/10|
D|--------------------------|--------------------------|
A|-7--7--7--8-----5-----7/8-|\7--7--7--10----8-----7/8-|
E|--------------------------|--------------------------|
                                                       |
Gtr 2                                                  |
PM_____________________________________________________|
e|--------------------------|--------------------------|
B|--------------------------|--------------------------|
G|--------------------------|--------------------------|
D|--------------------------|--------------------------|
A|-5--5--5--5--5--5--5--5---|-5--5--5--5--5--5--5--5---|
E|-2--2--2--2--2--2--2--2---|-2--2--2--2--2--2--2--2---|

Gtr 1
e|--------------------------|--------------------------|
B|--------------------------|--------------------------|
G|-9--9--9--10----7-----9/10|\9--9--9--12----10----9/10|
D|--------------------------|--------------------------|
A|-7--7--7--8-----5-----7/8-|\7--7--7--10----8-----7/8-|
E|--------------------------|--------------------------|
                                                       |
Gtr 2                                                  |
PM_____________________________________________________|
e|--------------------------|--------------------------|
B|--------------------------|--------------------------|
G|--------------------------|--------------------------|
D|-3--3--3--3--3--3--3--3---|-3--3--3--3--3--3--3--3---|
A|-1--1--1--1--1--1--1--1---|-1--1--1--1--1--1--1--1---|
E|--------------------------|--------------------------|

Gtr 1
e|--------------------------|--------------------------|
B|--------------------------|--------------------------|
G|-9--9--9--10----7-----9/10|\9--9--9--12----10----9/10|
D|--------------------------|--------------------------|
A|-7--7--7--8-----5-----7/8-|\7--7--7--10----8-----7/8-|
E|--------------------------|--------------------------|
                                                       |
Gtr 2                                                  |
PM_____________________________________________________|
e|--------------------------|--------------------------|
B|--------------------------|--------------------------|
G|--------------------------|--------------------------|
D|-5--5--5--5--5--5--5--5---|-5--5--5--5--5--5--5--5---|
A|-3--3--3--3--3--3--3--3---|-3--3--3--3--3--3--3--3---|
E|--------------------------|--------------------------|

Gtr 1
e|--------------------------|--------------------------|
B|--------------------------|--------------------------|
G|-9--9--9--10----7-----9/10|\9--9--9--12----10----9/10|
D|--------------------------|--------------------------|
A|-7--7--7--8-----5-----7/8-|\7--7--7--10----8-----7/8-|
E|--------------------------|--------------------------|
                                                       |
Gtr 2                                                  |
PM_____________________________________________________|
e|--------------------------|--------------------------|
B|--------------------------|--------------------------|
G|--------------------------|--------------------------|
D|-3--3--3--3--3--3--3--3---|-3--3--3--3--3--3--3--3---|
A|-1--1--1--1--1--1--1--1---|-1--1--1--1--1--1--1--1---|
E|--------------------------|--------------------------|

Gtr 1
e|--------------------------|--------------------------|
B|--------------------------|--------------------------|
G|-9--9--9--10----7-----9/10|\9--9--9--12----10----9/10|
D|--------------------------|--------------------------|
A|-7--7--7--8-----5-----7/8-|\7--7--7--10----8-----7/8-|
E|--------------------------|--------------------------|
                                                       | x2
Gtr 2                                                  |
PM_____________________________________________________|
e|--------------------------|--------------------------|
B|--------------------------|--------------------------|
G|--------------------------|--------------------------|
D|--------------------------|--------------------------|
A|-2--2--2--2--2--2--2--2---|-2--2--2--2--2--2--2--2---|
E|-0--0--0--0--0--0--0--0---|-0--0--0--0--0--0--0--0---|

Gtr 1
e|--------------------------|--------------------------|
B|--------------------------|--------------------------|
G|-9--9--9--10----7-----9/10|\9--9--9--12----10----9/10|
D|--------------------------|--------------------------|
A|-7--7--7--8-----5-----7/8-|\7--7--7--10----8-----7/8-|
E|--------------------------|--------------------------|
                                                       |
Gtr 2                                                  |
PM_____________________________________________________|
e|--------------------------|--------------------------|
B|--------------------------|--------------------------|
G|--------------------------|--------------------------|
D|-5--5--5--5--5--5--5--5---|-5--5--5--5--5--5--5--5---|
A|-3--3--3--3--3--3--3--3---|-3--3--3--3--3--3--3--3---|
E|--------------------------|--------------------------|

Gtr 1
e|--------------------------|--------------------------|
B|--------------------------|--------------------------|
G|-9--9--9--10----7-----9/10|\9--9--9--12----10----9/10|
D|--------------------------|--------------------------|
A|-7--7--7--8-----5-----7/8-|\7--7--7--10----8-----7/8-|
E|--------------------------|--------------------------|
                                                       |
Gtr 2                                                  |
PM_____________________________________________________|
e|--------------------------|--------------------------|
B|--------------------------|--------------------------|
G|--------------------------|--------------------------|
D|-3--3--3--3--3--3--3--3---|-3--3--3--3--3--3--3--3---|
A|-1--1--1--1--1--1--1--1---|-1--1--1--1--1--1--1--1---|
E|--------------------------|--------------------------|

Gtr 1
e|--------------------------|--------------------------|
B|--------------------------|--------------------------|
G|-9--9--9--10----7-----9/10|\9--9--9--12----10----9/10|
D|--------------------------|--------------------------|
A|-7--7--7--8-----5-----7/8-|\7--7--7--10----8-----7/8-|
E|--------------------------|--------------------------|
                                                       |
Gtr 2                                                  |
PM_____________________________________________________|
e|--------------------------|--------------------------|
B|--------------------------|--------------------------|
G|--------------------------|--------------------------|
D|--------------------------|--------------------------|
A|-2--2--2--2--2--2--2--2---|-2--2--2--2--2--2--2--2---|
E|-0--0--0--0--0--0--0--0---|-0--0--0--0--0--0--0--0---|

Gtr 1
e|--------------------------|--------------------------|
B|--------------------------|--------------------------|
G|-9--9--9--10----7-----9/10|\9--9--9--12----10----9/10|
D|--------------------------|--------------------------|
A|-7--7--7--8-----5-----7/8-|\7--7--7--10----8-----7/8-|
E|--------------------------|--------------------------|
                                                       |
Gtr 2                                                  |
PM_____________________________________________________|
e|--------------------------|--------------------------|
B|--------------------------|--------------------------|
G|--------------------------|--------------------------|
D|--------------------------|--------------------------|
A|-5--5--5--5--5--5--5--5---|-5--5--5--5--5--5--5--5---|
E|-2--2--2--2--2--2--2--2---|-2--2--2--2--2--2--2--2---|

Gtr 1
e|--------------------------|--------------------------|
B|--------------------------|--------------------------|
G|-9--9--9--10----7-----9/10|\9--9--9--12----10----9/10|
D|--------------------------|--------------------------|
A|-7--7--7--8-----5-----7/8-|\7--7--7--10----8-----7/8-|
E|--------------------------|--------------------------|
                                                       |
Gtr 2                                                  |
PM_____________________________________________________|
e|--------------------------|--------------------------|
B|--------------------------|--------------------------|
G|--------------------------|--------------------------|
D|-3--3--3--3--3--3--3--3---|-3--3--3--3--3--3--3--3---|
A|-1--1--1--1--1--1--1--1---|-1--1--1--1--1--1--1--1---|
E|--------------------------|--------------------------|

Gtr 1
e|--------------------------|--------------------------|
B|--------------------------|--------------------------|
G|-9--9--9--10----7-----9/10|\9--9--9--12----10----9/10|
D|--------------------------|--------------------------|
A|-7--7--7--8-----5-----7/8-|\7--7--7--10----8-----7/8-|
E|--------------------------|--------------------------|
                                                       |
Gtr 2                                                  |
PM_____________________________________________________|
e|--------------------------|--------------------------|
B|--------------------------|--------------------------|
G|--------------------------|--------------------------|
D|-5--5--5--5--5--5--5--5---|-5--5--5--5--5--5--5--5---|
A|-3--3--3--3--3--3--3--3---|-3--3--3--3--3--3--3--3---|
E|--------------------------|--------------------------|

Gtr 1
e|--------------------------|--------------------------|
B|--------------------------|--------------------------|
G|-9--9--9--10----7-----9/10|\9--9--9--12----10----9/10|
D|--------------------------|--------------------------|
A|-7--7--7--8-----5-----7/8-|\7--7--7--10----8-----7/8-|
E|--------------------------|--------------------------|
                                                       |
Gtr 2                                                  |
PM_____________________________________________________|
e|--------------------------|--------------------------|
B|--------------------------|--------------------------|
G|--------------------------|--------------------------|
D|-3--3--3--3--3--3--3--3---|-3--3--3--3--3--3--3--3---|
A|-1--1--1--1--1--1--1--1---|-1--1--1--1--1--1--1--1---|
E|--------------------------|--------------------------|

Gtr 1
e|--------------------------|--------------------------|
B|--------------------------|--------------------------|
G|-9--9--9--10----7-----9/10|\9--9--9--12----10----9/10|
D|--------------------------|--------------------------|
A|-7--7--7--8-----5-----7/8-|\7--7--7--10----8-----7/8-|
E|--------------------------|--------------------------|
                                                       | x4
Gtr 2                                                  |
e|--------------------------|--------------------------|
B|--------------------------|--------------------------|
G|--------------------------|--------------------------|
D|-2--2--2--2--2--2--2--2---|-2--2--2--2--2--2--2--2---|
A|-2--2--2--2--2--2--2--2---|-2--2--2--2--2--2--2--2---|
E|-0--0--0--0--0--0--0--0---|-0--0--0--0--0--0--0--0---|
_____________________________________________________________________________________________________________


Enjoy
Please rate and leave constructive comments/feedback
paddyonthetoadstool@hotmail.com July 2015

Adapted from tabs by Silverginger and johnny rockstar 
Добавлено: 07.12.2015
Другие материалы по этой песне:
  • Аккорды и текст

Страница создана 07.12.2015
http://primanota.ru/wildhearts/cold-patootie-tango-caprice-chords.htm
Привет, Гость.
Предлагаем пройти революционный курс по гитаре.
Подарок от PrimaNota.Ru, забирай!