PrimaNota.ru - самый крупный в мире бесплатный архив песенных текстов, аккордов, табулатур и нот


Wild Nothing - This Chain Wont Break - таба, видео

Регистрация Запомнить меня
Войти через:  Facebook Google Twitter Vk Yandex Mail.ru

Wild Nothing - This Chain Wont Break - таба, видео

Печатать
Просмотров: 124
Авторы музыки: Jack Tatum
Авторы текста: Jack Tatum
Wild Nothing - This Chain Won't Break
Track 6 from the album "Nocturne" (Captured Tracks 2012).

Tabbed by Isaac Murguia, November 2014.
Originally uploaded to Ultimate-Guitar.com
Contact: www.youtube.com/Goadiroth

INTRO:
   D    C    C    G6
e|-2----0----0----0----|
B|-3----1----1----0----|
G|-2----0----0----0----|
D|-0----2----2----0----|
A|------3----3----2----|
E|----------------3----| [x2]

VERSE:
   D C C G6 [x4]

CHORUS:
   Em       D    Em       D      C    G6   G6   G6
e|-0--0-0---2----0--0-0---2----|-0----0----0----0----|
B|-0------3-3----0------3-3----|-1----0----0----0----|
G|-0--------2----0--------2----|-0----0----0----0----|
D|-2--------0----2--------0----|-2----0----0----0----|
A|-2-------------2-------------|-3----2----2----2----|
E|-0-------------0-------------|------3----3----3----|

Repeat INTRO [x2], then strum D chord once

   And I don't know just what I got myself into 
   And all I know is I can't let go
   And I don't know just what I got myself into
   And all I know is I can't let go, yeah

BRIDGE:
   C    Em   D
e|-0----0----2----(2)----|
B|-1----0----3----(3)----|
G|-0----0----2----(2)----|
D|-2----2----0----(0)----|
A|-3----2----------------|
E|------0----------------| [x6]

CHORUS VARIATION:
   Em   D    Em   D      C    G6   G6   G6
e|-0----2----0----2----|-0----0----0----0----|
B|-0----3----0----3----|-1----0----0----0----|
G|-0----2----0----2----|-0----0----0----0----|
D|-2----0----2----0----|-2----0----0----0----|
A|-2---------2---------|-3----2----2----2----|
E|-0---------0---------|------3----3----3----|

Repeat INTRO [x2]

End. Please rate! :D
Добавлено: 22.04.2015
Вам также может быть интересно:
Другие материалы по этой песне:
  • Аккорды и текст

Страница создана 22.04.2015
http://primanota.ru/wild-nothing/this-chain-wont-break-chords.htm
Привет, Гость.
Предлагаем пройти революционный курс по гитаре.
Подарок от PrimaNota.Ru, забирай!