PrimaNota.ru - самый крупный в мире бесплатный архив песенных текстов, аккордов, табулатур и нот


Wild Nothing - The Blue Dress - таба, видео

Регистрация Запомнить меня
Войти через:  Facebook Google Twitter Vk Yandex Mail.ru

Wild Nothing - The Blue Dress - таба, видео

Печатать
Просмотров: 203
Уроки эстрадного вокала в Санкт-Петербурге
Авторы музыки: Jack Tatum
Авторы текста: Jack Tatum
Wild Nothing - The Blue Dress
From the album "Nocturne" (captured tracks 2012).

Tabbed by Isaac Murguia, June 24, 2013.
YouTube: Goadiroth

h = hammer-on
/ = slide up

CHORUS:
         [x3]
e|-----------------|-----------------|
B|-----------------|--------9--------|
G|-------6-6-6h8---|-9-8---8--9-9----|
D|-6--9----------9-|-----9--------11-|
A|-----------------|-----------------|
E|-----------------|-----------------| [x3]

PRE-CHORUS:
e|----------------|------------------|
B|----------------|------------------|
G|-9------9-11----|-----6------------|
D|----11-------9--|-7-9---7----4--2--|
A|----------------|------------------|
E|----------------|------------------| [x2]

Repeat CHORUS [x2]
Repeat PRE-CHORUS [x2]
Repeat CHORUS [x2]

BRIDGE:
e|---------------|-------------------|
B|---------------|-------------------|
G|-11-----9------|-------------------|
D|-----9-----7---|-7/9--7/9--9/11--9-|
A|---------------|-------------------|
E|---------------|-------------------|

Repeat CHORUS [x3]

The end. Please rate! :)
Добавлено: 05.12.2013
Другие материалы по этой песне:
  • Аккорды и текст

Страница создана 06.10.2013
http://primanota.ru/wild-nothing/the-blue-dress-chords.htm
Привет, Гость.
Предлагаем пройти революционный курс по гитаре.
Подарок от PrimaNota.Ru, забирай!