PrimaNota.ru - самый крупный в мире бесплатный архив песенных текстов, аккордов, табулатур и нот


Wild Nothing - Quiet Hours - таба, видео

Регистрация Запомнить меня
Войти через:  Facebook Google Twitter Vk Yandex Mail.ru

Wild Nothing - Quiet Hours - таба, видео

Печатать
Просмотров: 139
Авторы музыки: Jack Tatum
Авторы текста: Jack Tatum
-------------------------------------------------------------------------------
                         Quiet Hours - Wild Nothing
-------------------------------------------------------------------------------

Tuning: Standard

Intro/Post-Chorus/Outro:

e|---------------------------------------------------------------------------|
B|---------------------------------------------------------------------------|
G|---------------------------------------------------------------------------|
D|--7-77-6-6-44/6-44-6-------------------------------------------------------|
A|---------------------4-4-2-2-2-2-2-2---------------------------------------|
E|---------------------------------------------------------------------------|

or

e|---------------------------------------------------------------------------|
B|---------------------------------------------------------------------------|
G|---------------------------------------------------------------------------|
D|--7-77-6-6-44/6-44-6---------2---------------------------------------------|
A|---------------------4-2-2h4---4-------------------------------------------|
E|---------------------------------------------------------------------------|

Verse:

e|---------------------------------------------------------------------------|
B|---------------------------------------------------------------------------|
G|---------------------------------------------------------------------------|
D|--7-77-6-6-9-99-6-66-7-77-6-6-4-4-2-222------------------------------------|
A|---------------------------------------------------------------------------|
E|---------------------------------------------------------------------------|

The chorus is tough, here are the chords instead

     B                            E
It's not what I want, It's what I needed
Добавлено: 22.04.2015
Другие материалы по этой песне:
  • Аккорды и текст

Страница создана 22.04.2015
http://primanota.ru/wild-nothing/quiet-hours-chords.htm
Привет, Гость.
Предлагаем пройти революционный курс по гитаре.
Подарок от PrimaNota.Ru, забирай!