PrimaNota.ru - самый крупный в мире бесплатный архив песенных текстов, аккордов, табулатур и нот


Wild Nothing - Golden Haze - таба, видео

Регистрация Запомнить меня
Войти через:  Facebook Google Twitter Vk Yandex Mail.ru

Wild Nothing - Golden Haze - таба, видео

Печатать
Просмотров: 204
Авторы музыки: Jack Tatum
Авторы текста: Jack Tatum
This was requested in the forums.

main riff
e|----------------------------------------------------|
B|-6-6-6-4-------4-4-4-----4-4-4----------------------|
G|------------5---------3---------5---3-3-3-----------|
D|----------------------------------------------------|
A|----------------------------------------------------|
E|----------------------------------------------------|x4

after playing that 4 times round, the lead comes in with a counter melody over the head:
e|------------------------------------------------------------|
B|-9-9-9-8----------------------------------------------------|
G|--------------------8-8-8---------8-------------------------|
D|--------10-1010-10--------8-88-8------6-6-6-----------------|
A|------------------------------------------------------------|
E|------------------------------------------------------------|x5



Vocals in: verse per intro

Guitar 1: play intro riff

Guitar 2: tremolo pick this
e|---------------------------------------------------------------------------|
B|---------------------------------------------------------------------------|
G|---------------------------------------------------------------------------|
D|-10---8----5----6-------------------------------------------------------|
A|---------------------------------------------------------------------------|
E|---------------------------------------------------------------------------|


chorus (here, the lead plays over the bassline and a riff)

Guitar 1
"giving you away" (about 1:13)
e|-------|---------------------------------------|
B|-------|---------------------------------------|
G|-------|o--5-6-5-3-3-3---5-6-5-3-3-3----------o|
D|--5-6--|o-------------------------------------o|
A|-------|---------------------------------------|
E|-------|---------------------------------------|


Guitar 2
e|-----------------|----------------------|
B|-----------------|----------------------|
G|o-5-6--8---------|---------------------o|
D|o----------8-6---|-11-11-11-10---------o|
A|-----------------|-------------11-8-----|
E|-----------------|-------------------11-|
                                         x4


Bridge (1:40)

Guitar 1 plays main riff

guitar two
e|------------------------------------|
B|------------------4-----4-4---------|
G|-6-6-6-5----------------------5-----|
D|---------6---6-6-----6--------------|
A|------------------------------------|
E|------------------------------------|
                                     x4


Repeat Verse 1
and chorus


outro (around 2:50)

Guitar 1
e|------------------------------------------|
B|-6-6-6-4----------------------------------|
G|----------5-55-5-3---5-55-5-3---5-55-5-3--|
D|------------------------------------------|
A|------------------------------------------|
E|------------------------------------------|

Guitar 2
e|---------------------------------------|
B|---------------------------------------|
G|-5-5-5-----8-8-8----------------------|
D|-------6--6-------6---8-8-8-8-6--------|
A|---------------------------------------|
E|---------------------------------------|


Добавлено: 02.07.2012
Другие материалы по этой песне:
  • Аккорды и текст

Страница создана 02.07.2012
http://primanota.ru/wild-nothing/golden-haze-chords.htm
Привет, Гость.
Предлагаем пройти революционный курс по гитаре.
Подарок от PrimaNota.Ru, забирай!