PrimaNota.ru - самый крупный в мире бесплатный архив песенных текстов, аккордов, табулатур и нот


Wild Nothing - Confirmation - бас-таба, видео

Регистрация Запомнить меня
Войти через:  Facebook Google Twitter Vk Yandex Mail.ru

Wild Nothing - Confirmation - бас-таба, видео

Печатать
Просмотров: 168
Уроки эстрадного вокала в Санкт-Петербурге
Авторы музыки: Jack Tatum
Авторы текста: Jack Tatum
Wild Nothing - Confirmation
Track 7 from the album "Gemini" (Captured Tracks 2010).

Tabbed by Isaac Murguia, January 2015.
Originally uploaded to Ultimate-Guitar.com
Contact: www.youtube.com/user/Goadiroth

INTRO:
G|----------------------------------------|--------------------------------------|
D|----------------------------------------|--------------------------------------|
A|-9-9--7-0-4-4--4-5-7-7--5-4-0--0--2-4-5-|-9-9--7-0-4--2--2-4-7-7---5-4-0--0-2--|
E|----------------------------------------|--------------------------------------|

G|------------------------------------|--------------------------------------|
D|------------------------------------|--------------------------------------|
A|-9-9--7-0-4-4--4-5-7-7--5-4-5-4-2-0-|-9-9--7-0-4--2--2-4-7-7---5-4-0--0-2--|
E|------------------------------------|--------------------------------------|

VERSE 1:
G|----------------------------------------|--------------------------------------|
D|----------------------------------------|--------------------------------------|
A|-9-9--7-0-4-4--4-5-7-7--5-4-0--0--2-4-5-|-9-9--7-0-4--2--2-4-7-7---5-4-0--0-2--|
E|----------------------------------------|--------------------------------------|

G|------------------------------------|---------------------------------------------------------------|
D|------------------------------------|---------------------------------------------------------------|
A|-9-9--7-0-4-4--4-5-7-7--5-4-5-4-2-0-|-9-9--7-0-4--2--2-4-7-7-777--5--5--5-5--5--5-5--5--5-5--5--555-|
E|------------------------------------|---------------------------------------------------------------|

CHORUS:
G|------------------------------|
D|------------------------------|
A|-0-0-000-7-77-77--5-7-9-9-999-|
E|------------------------------|

G|--------------------------------------------------------------------|
D|-11--11-11--11-11--11-12-11\---------------11-12-11\----------------|
A|------------------------------5-555-7-7777-----------5-555-7-777777-|
E|--------------------------------------------------------------------|

Repeat CHORUS

POST-CHORUS/VERSE 2:
G|------------------------------------|--------------------------------------|
D|------------------------------------|--------------------------------------|
A|-9-9--7-0-4-4--4-5-7-7--5-4-5-4-2-0-|-9-9--7-0-4--2--2-4-7-7---5-4-0--0-2--|
E|------------------------------------|--------------------------------------| [x3]

G|------------------------------------|---------------------------------------------------------------|
D|------------------------------------|---------------------------------------------------------------|
A|-9-9--7-0-4-4--4-5-7-7--5-4-5-4-2-0-|-9-9--7-0-4--2--2-4-7-7-777--5--5--5-5--5--5-5--5--5-5--5--555-|
E|------------------------------------|---------------------------------------------------------------|

Repeat CHORUS [x2]

OUTRO:
G|------------------------------------|-----------------------------------|
D|------------------------------------|-----------------------------------|
A|-9-9--7-0-4-4--4-5-7-7--5-4-5-4-2-0-|-9-9--7-0-4--2--2-4-7-7---5-4-0----|
E|------------------------------------|-----------------------------------|

End. Please rate! :D
Добавлено: 22.04.2015
Другие материалы по этой песне:
  • Аккорды и текст

Страница создана 22.04.2015
http://primanota.ru/wild-nothing/confirmation-chords.htm
Привет, Гость.
Предлагаем пройти революционный курс по гитаре.
Подарок от PrimaNota.Ru, забирай!