PrimaNota.ru - самый крупный в мире бесплатный архив песенных текстов, аккордов, табулатур и нот


Wild Flag - Future Crimes - таба, видео

Регистрация Запомнить меня
Войти через:  Facebook Google Twitter Vk Yandex Mail.ru

Wild Flag - Future Crimes - таба, видео

Печатать
Просмотров: 73
Авторы музыки: Carrie Brownstein, Rebecca Cole, Mary Timony, Janet Weiss
Авторы текста: Carrie Brownstein, Mary Timony
 Tab for Future Crimes by Wild Flag. Brilliant band, and song. It's fairly simple.
-------------------------------------------------------------------------------
                             Future Crimes - Wild Flag
-------------------------------------------------------------------------------
Tabbed by:
E-mail:

Tuning: Standard

Carrie:(most of the song)
e|---------------------------------------------------------------------------|
B|------6--3--6--------------------------------------------------------------|
G|---3--5--3--5--------------------------------------------------------------|
D|---5--3--3--3--------------------------------------------------------------|
A|---------------------------------------------------------------------------|
E|---------------------------------------------------------------------------|

Carrie: bridge
e|---------------------------------------------------------------------------|
B|----3-----3-----6-6-6-6----------------------------------------------------|
G|---3-3---3-3---5-5-5-5---2-2-2---------------------------------------------|
D|--5---5-5---5-----------3-3-3-3--------------------------------------------|
A|---------------------------------------------------------------------------|
E|---------------------------------------------------------------------------|

Mary: verse
e|---------------------------------------------------------------------------|
B|---------------------------------------------------------------------------|
G|---77-55-77-55-1010-77-1010-55--------------77101055-77101055-1010121255---|
D|---------------------------------------------------------------------------|
A|---------------------------------------------------------------------------|
E|---------------------------------------------------------------------------|

Mary: Chorus
e|---------------------------------------------------------------------------|
B|---------------------------------------------------------------------------|
G|---------------------------------------------------------------------------|
D|---------------------------------------------------------------------------|
A|---------------------------------------------------------------------------|
E|--333333335555555666666666131313131313131313-------------------------------|

e|---------------------------------------------------------------------------|
B|---------------------------------------------------------------------------|
G|---------------------------------------------------------------------------|
D|---------------------------------------------------------------------------|
A|---------------------------------------------------------------------------|
E|---------------------------------------------------------------------------|


************************************

| /   slide up
| \   slide down
| h   hammer-on
| p   pull-off
| ~   vibrato
| +   harmonic
| x   Mute note
| b   Bend
| pb  Pre-bend
| br  Bend release
| pbr Pre-bend release
| brb Bend release bend

************************************
Добавлено: 28.10.2015
Вам также может быть интересно:
Другие материалы по этой песне:
  • Аккорды и текст

Страница создана 28.10.2015
http://primanota.ru/wild-flag/future-crimes-chords.htm
Привет, Гость.
Предлагаем пройти революционный курс по гитаре.
Подарок от PrimaNota.Ru, забирай!