PrimaNota.ru - самый крупный в мире бесплатный архив песенных текстов, аккордов, табулатур и нот


Wild Beasts - This Is Our Lot - бас-таба, видео

Регистрация Запомнить меня
Войти через:  Facebook Google Twitter Vk Yandex Mail.ru

Wild Beasts - This Is Our Lot - бас-таба, видео

Печатать
Просмотров: 115
Авторы: Wild Beasts

Main riff

G|-------------14-12--|   
D|-12-12-12-12--------|    
A|-----—--—------—----|    
E|--------------------| x4 

G|--------------------|   
D|--------------------|    
A|-7-7-7-7-—-7--—-----|    
E|---------8----------| x4 

G|-------------------------|   
D|-11-11-11-11-14-11-11-11-|    
A|-----—--—------—---------|    
E|-------------------------| x4 

G|--------------------|   
D|--------------------|    
A|-7-7-7-7--—0-7-—----|    
E|--------------------| x2
Добавлено: 22.05.2012
Другие материалы по этой песне:
  • Аккорды и текст

Страница создана 22.05.2012
http://primanota.ru/wild-beasts/this-is-our-lot-chords.htm
Привет, Гость.
Предлагаем пройти революционный курс по гитаре.
Подарок от PrimaNota.Ru, забирай!