PrimaNota.ru - самый крупный в мире бесплатный архив песенных текстов, аккордов, табулатур и нот


Wild Beasts - The Devils Crayon - таба, видео

Регистрация Запомнить меня
Войти через:  Facebook Google Twitter Vk Yandex Mail.ru

Wild Beasts - The Devils Crayon - таба, видео

Печатать
Просмотров: 68
-------------------------------------------------------------------------------
                    THE DEVIL'S CRAYON (Acoustic) - Wild Beasts
-------------------------------------------------------------------------------
Tabbed by: Harry May
E-mail: harry_may123@hotmail.com

Capo 3rd Fret

Tuning: Standard

Video: http://www.youtube.com/watch?v=jtUQRWm8cbg

I couldn't find any tabs on this song (acoustic or original) so decided to give it a 
bash myself. I figured it out from the Black Cab sessions video on YouTube and I'm a 95% 
it's accurate. Anyway it's just one riff throughout the whole song which goes like this...


Intro:

e|-------------0---------------------0--------------------0--------------------0-------|
B|-------3--------------------3---------------------3--------------------3-------------|
G|---------0--------------------0---------------------0--------------------0-----------|
D|-0h2-----------2---2--0h2------------2---2--0h2-----------2---2--0h2-----------2---2-|
A|-----3-----3-----3--------3------3-----3---------------------------------------------|
E|------------------------------------------------3-----3-----3--------3-----3-----3---|

Vocals enter:

     This truly is...
e|-------------0---------------------0--------------------0--------------------0-------|
B|-------3--------------------3---------------------3--------------------3-------------|
G|---------0--------------------0---------------------0--------------------0-----------|
D|-0h2-----------2---2--0h2------------2---2--0h2-----------2---2--0h2-----------2---2-|
A|-----3-----3-----3--------3------3-----3---------------------------------------------|
E|------------------------------------------------3-----3-----3--------3-----3-----3---|

This truly is
The Devil's crayon
tracing your shoulder blades
aglow like rayon

This truly is the Devil's crayon
that all his children can use to draw

and we are so many tiny pieces
We are so many tiny pieces

This truly is
The Devil's answer
carved from the tongue
of this romancer

This truly is the Devil's answer
that all his children use to kiss

and we are so many clambering hands
We are so many clambering hands

the way you say her name
I want mine said the same, devil devil devil devil
the way you say her name I want mine said the same
devil

This truly is the Devil's shoulder
your arm draped around
ten times over

This truly is the Devil's shoulder
that all his children will use to throw their loads, their loads on you
to throw their loads on you

And we are so much moulded dough
We are so much moulded dough

Used to throw their loads on you
Used to throw their loads on you
Добавлено: 15.06.2013
Другие материалы по этой песне:
  • Аккорды и текст

Страница создана 15.06.2013
http://primanota.ru/wild-beasts/the-devils-crayon-chords.htm
Привет, Гость.
Предлагаем пройти революционный курс по гитаре.
Подарок от PrimaNota.Ru, забирай!