PrimaNota.ru - самый крупный в мире бесплатный архив песенных текстов, аккордов, табулатур и нот


Wikluh Sky - Pazi Sta Radis - таба, видео

Регистрация Запомнить меня
Войти через:  Facebook Google Twitter Vk Yandex Mail.ru

Wikluh Sky - Pazi Sta Radis - таба, видео

Печатать
Просмотров: 262
Уроки эстрадного вокала в Санкт-Петербурге
---------------------------------------------------------------------------    
       Pazi Sta Radis [Be Careful] - Wikluh Sky
-------------------------------------------------------------------------------
Literally took me 5 mins. to learn, this is the closing credits song
and trailer song to A Serbian Film (2010). Listen to the song for tempo, etc.


Tuning: Standard

e|---------------------------------------------------------------------------|
B|---------------------------------------------------------------------------|
G|---------------------------------------------------------------------------|
D|---------------------------------------------------------------------------|
A|-----4-----7-----4-------------4---7---4-----------------------------------|
E|--4----4------4----4-------4----4----4---4---------------------------------|


e|---------------------------------------------------------------------------|
B|---------------------------------------------------------------------------|
G|---------------------------------------------------------------------------|
D|--7--6-----6---------------------7--6----6---------------------------------|
A|---------8-----8--7--4-----------------8----8--7--4------------------------|
E|---------------------------------------------------------------------------|
Добавлено: 19.05.2012
Другие материалы по этой песне:

Страница создана 19.05.2012
http://primanota.ru/wikluh-sky/pazi-sta-radis-chords.htm
Привет, Гость.
Предлагаем пройти революционный курс по гитаре.
Подарок от PrimaNota.Ru, забирай!