PrimaNota.ru - самый крупный в мире бесплатный архив песенных текстов, аккордов, табулатур и нот


Wigelius - Please Please Please - таба, видео

Регистрация Запомнить меня
Войти через:  Facebook Google Twitter Vk Yandex Mail.ru

Wigelius - Please Please Please - таба, видео

Печатать
Просмотров: 91
Please Please Please - Wigelius

Tuned Full Step Down - D G C F A d

Intro: same as chorus
e---------------------------------------------------------------------------|
B---------------------------------------------------------------------------|
G--2-------4--4--4/6\4--2-------4--4-------------2-----4--4--4/6\4--2-----7-|
D--2--2-2--4--4--4/6\4--2--2-2--4--4-------------2--2--4--4--4/6\4--2--2--7-|
A--0--2-2--2--2--2/4\2--0--2-2--2--2--------2-4--0--2--2--2--2/4\2--0--2--5-|
E-----0-0------------------0-0--------0-2-4---------0------------------0----|

Post Intro:
e------------------------------|
B------------------------------|
G-7--7-7/9\7-------------------|
D-7--7-7/9\7------5-------5----|
A-5--5-5/7\5--2-3---3-2-3---3--|
E------------------------------|
Добавлено: 13.12.2015
Другие материалы по этой песне:
  • Аккорды и текст

Страница создана 13.12.2015
http://primanota.ru/wigelius/please-please-please-chords.htm
Привет, Гость.
Предлагаем пройти революционный курс по гитаре.
Подарок от PrimaNota.Ru, забирай!