PrimaNota.ru - самый крупный в мире бесплатный архив песенных текстов, аккордов, табулатур и нот


Widowspeak - Harsh Realm - аккорды и текст, таба, видео

Регистрация Запомнить меня
Войти через:  Facebook Google Twitter Vk Yandex Mail.ru

Widowspeak - Harsh Realm - аккорды и текст, таба, видео

Печатать
Просмотров: 914
Harsh Realm
Widowspeak
Intro

G    Em    G    Em    (...)  


2nd Guitar

e|--------------------------------------|
B|--------------------------------------|
G|-14b16--14b16--14b16--12~-------------|
D|--------------------------------------|
A|--------------------------------------|
E|--------------------------------------|


G       Em   G           Em
Last night I thought of you
G        Em     G        Em
Years ago, when bodies grew
   G       Em    G        Em
An empty home, a vacant Hell
G       Em        G        Em
I knew you in the harsh realm


C   Em        Am          C
I    thought about how it was
C   Em        Am          C
I    thought about you because
  Am   Em       Am        Em
I always think about you
  Am   Em       Am        Em
I always think about you


G         Em         G         Em         G         Em


2nd Guitar

e|--3---------0-------------------------|---3----------0---------------------|
B|----0-----5---5-----------------------|-----0------5---5-------------------|
G|------3/4----------14b16--------------|--------3/4----------16br14---------|
D|--------------------------------------|------------------------------------|
A|--------------------------------------|------------------------------------|
E|--------------------------------------|------------------------------------|

e|--3---------0---3---5---5b7-----------|---3----------0---------------------|
B|----0-----5---5---5---5---------------|-----0------5---5-------------------|
G|------3/4-----------------------------|--------3/4----------16br14---------|
D|--------------------------------------|------------------------------------|
A|--------------------------------------|------------------------------------|
E|--------------------------------------|------------------------------------|


  Am   Em       Am        Em
I always think about you
  Am   Em       Am        Em
I always think about you


G         Em         G         Em         G         Em


   G       Em
An empty home
  G        Em
A vacant Hell
G       Em        G        Em
I knew you in the harsh realm
Добавлено: 24.11.2013
Другие материалы по этой песне:
  • Аккорды и текст

Страница создана 12.06.2013
http://primanota.ru/widowspeak/harsh-realm-chords.htm
Привет, Гость.
Предлагаем пройти революционный курс по гитаре.
Подарок от PrimaNota.Ru, забирай!