PrimaNota.ru - самый крупный в мире бесплатный архив песенных текстов, аккордов, табулатур и нот


Wide Mouth Mason - Shes Alone - таба, видео

Регистрация Запомнить меня
Войти через:  Facebook Google Twitter Vk Yandex Mail.ru

Wide Mouth Mason - Shes Alone - таба, видео

Печатать
Просмотров: 52
-------------------------------------------------------------------------------
                             She's Alone - Wide Mouth Mason
-------------------------------------------------------------------------------
Tabbed by: George Juggles


Tuning: EADGBe


I'm just going to give you the parts, you can put them in order. It's pretty obvious 
when each part is.

Intro and Chorus:
e|---------------------------------------------------------------------------|
B|---------------------------------------------------------------------------|
G|-------------------8-8-7-7-5--5--------------------------------------------|
D|---8-8-6-6-5--5----8-8-7-7-5--5-------Play this a total of 4 times---------|
A|---8-8-6-6-5--5----6-6-5-5-3--3--------------------------------------------|
E|---6-6-4-4-3--3------------------------------------------------------------|

Verse:
e|---3---3---3---3-----------------------------------------------------------|
B|---3---3---4---4-----------------------------------------------------------|
G|---4---4---5---5----------Play this 4 times--------------------------------|
D|---5---5---5---5-----------------------------------------------------------|
A|---5---5---3---3-----------------------------------------------------------|
E|---3---3-------------------------------------------------------------------|

Bridge:
e|---------------------------------------------------------------------------|
B|---------------------------------------------------------------------------|
G|---------------------------------------------------------------------------|
D|--10\---------------------10\---------------------------Play this twice----|
A|--10\-----10-10-11-10-----10\-----10-10-11-10------------------------------|
E|---8\-----------------11---8\-----------------11---------------------------|

Solo 1:
e|---------------------------------------------------------------------------|
B|---------------------------------------------------------------------------|
G|---------------------------------------------------------------8-----8--10-|
D|------------------------------------8----------------8----8--10-10---------|
A|----------------------8-10----8/10----/10\8/10-8--10-----------------------|
E|---11brbr-----8-11---------------------------------------------------------|

e|--------------------------------------------------------------------------------|
B|--------------------------------------------------------------------------------|
G|---10b--------------------------------------------------------------------------|
D|--------------------------------------------------------------------------------|
A|--------------------------------------------------------------------------------|
E|--------------------------------------------------------------------------------|

Solo 2:
e|---------------------------------------------------------------------------|
B|---------------------------------------------------------------------------|
G|-----5-7pb--5---5----5---5---5-7-5---5--7-7pb-5---5----5-7-5---5-----------|
D|---8----------8----8--8----8-------8------------8----8-------8-------------|
A|---------------------------------------------------------------------------|
E|---------------------------------------------------------------------------|

e|---16b\----------------8----------8----10hb--8-----8----------8-10hb-8-----|
B|------------------11b-----11-11b----11---------11b-----8-11b-----------11b-|
G|---------------------------------------------------------------------------|
D|---------------------------------------------------------------------------|
A|---------------------------------------------------------------------------|
E|---------------------------------------------------------------------------|

e|----------------------------------------------------------------------8----|
B|---11pb--------------------11-11-10-10-8-8-10-10-8-8-----------------------|
G|---------8--10b-10-8-10----12-12-10-10-8-8-10-10-8-8-7-7-5\----------------|
D|----------------------------------------------------------------10-10---10-|
A|---------------------------------------------------------------------------|
E|---------------------------------------------------------------------------|

e|---8----8-11-8---8-11-----13brb--11-13--------11-----------------------------------|
B|---------------------------------------13-13---------------------------------------|
G|-----------------------------------------------------10-8--------8hb-8hb-----------|
D|-----10------------------------------------------------------10--------------------|
A|-----------------------------------------------------------------------------------|
E|-----------------------------------------------------------------------------------|

e|---------------------------------------------------------------------------|
B|---------------------------------------------------------------------------|
G|---10br-8-------------------------------------------------------------8----|
D|----------10---10----------------------------------------8-8h10----10------|
A|------------------\8---------------8-9-10-8-10-8----8-10-------------------|
E|---------------------11-8-----8-11---------------11------------------------|

e|---------------------------------------------------------------------11hb-------|
B|---------------------------13---13---13---13----11----13----13-13-13------------|
G|--10-10br-8-10--8---------------------------------------------------------------|
D|------------------10----10----10---10---10---10----10---------------------------|
A|--------------------------------------------------------------------------------|
E|--------------------------------------------------------------------------------|


e|---11hb--------------------------------------------------13hb--13b--13b----|
B|--------13-----\11-10-11-10-11-11-10-11-10-11-10-13\-----------------------|
G|---------------------------------------------------------------------------|
D|---------------------------------------------------------------------------|
A|---------------------------------------------------------------------------|
E|---------------------------------------------------------------------------|


e|---13b--13b--13b-------11--11--11--8--------8--------8---------------------|
B|-------------------------------------8-11hb---8-11hb---8-11b-----8---------|
G|-------------------------------------------------------------------11-10---|
D|---------------------------------------------------------------------------|
A|---------------------------------------------------------------------------|
E|---------------------------------------------------------------------------|

e|---------------------------------------------------------------------------|
B|--------10-----------------------------------------------------------------|
G|---8----10----8----------------8-----------8---------8---------------------|
D|-----10----10---10-8-------10----10-8--------10-8------10-8----------------|
A|---------------------10---------------10----------10--------10-------------|
E|------------------------8----------------8---------------------8-----------|

The main riff is played during the solo. Enjoy the song

************************************

| /   slide up
| \   slide down
| h   hammer-on
| p   pull-off
| ~   vibrato
| +   harmonic
| x   Mute note
| b   Bend
| pb  Pre-bend
| br  Bend release
| pbr Pre-bend release
| brb Bend release bend

************************************
Добавлено: 15.12.2015
Другие материалы по этой песне:
  • Аккорды и текст

Страница создана 15.12.2015
http://primanota.ru/wide-mouth-mason/shes-alone-chords.htm
Привет, Гость.
Предлагаем пройти революционный курс по гитаре.
Подарок от PrimaNota.Ru, забирай!