PrimaNota.ru - самый крупный в мире бесплатный архив песенных текстов, аккордов, табулатур и нот


Wicked - No Good Deed - бас-таба, видео

Регистрация Запомнить меня
Войти через:  Facebook Google Twitter Vk Yandex Mail.ru

Wicked - No Good Deed - бас-таба, видео

Печатать
Просмотров: 65
-------------------------------------------------------------------------------
                            No Good Deed - Wicked
-------------------------------------------------------------------------------
Tabbed by: Mati Tallica
E-mail: 
Tuning: EADG (the original is played on a 5 string bass)

          "Fiyero!"
G|-------------------------------------------------|
D|-------------------------------------------------|
A|--3--------3---------3---1-----------------------|
E|-----------------------------4----3--------------|

  "Eleka nahmen"    "let his flesh"  "Let his bones"      "..never die"
G|----------------|-----------------|-------------------------6--4-----|
D|----------------|-----------------|-------------------------------3--|
A|----------------|--3--------------|--4-------------------------------|
E|--3------3------|-----------------|----------------------------------|

  "Eleka nahmen"   "what good is"   "Fiyero where are you?"
G|----------------|----------------|------------------------|
D|----------------|----------------|------------------------|
A|----------------|--5------5------|---6--------------------|
E|--4------4------|----------------|------------------------|

 "one more"     "my"  "generous" "suply"
G|------------------------------|---------------------------------|
D|------------------------------|---------------------------------|
A|--6--4--2--1------------------|---2--5-----4------2--5----------|
E|----------------3-------2-----|---------4---------------3--2----|

 "No good deed"     "no act of"    "no good deed"    "creed"
G|---------------------------------|------------------------|
D|---------------------------------|------------------------|
A|---2--5-----4------2--5----------|---2--5-------------6---|
E|---------4---------------3--2----|---------0--4-----------|

 "my road of good"        "no good deed"      "unpunished"
G|-----------------------|-------------------|------------------|
D|---6--------------6----|-------------------|------------------|
A|-------7--------6------|-------------------|---2--5-----4-----|
E|-----------7-----------|---5---5----3---2--|---------4--------|

(~1:43)      "Nessa"   "Dr Dillamond" "Fiyero"  "Fiyero!"
G|-----------------------------------|---------|-----------------------------|
D|----6----6----6-------------6------|---------|----3----------3-------------|
A|-----------------------------------|---------|----1----------1-------------|
E|-----------------------------------|--0---0--|-----------------------------|

 "one question"   "Was I really"    "Is that all"   "If that's all"    "why"
G|--------------|----------------|----------------|--------------------------|
D|--------------|----------------|----------------|------3-------------------|
A|-----4--------|----------------|--4-------------|--5----1-1----3--3-3------|
E|--6-----4--1--|--6---2--4--4-5-|-----5--7---4-5-|----------------------2---|

"No good deed"                    "no good deed"  "Sure, I meant well" 
G|-------------------------------|-------------------------------------------|
D|-------------------------------|-------------------------------------------|
A|---2--5-----4------2--5--------|---3--6-----5------3--6--------------------|
E|---------4---------------3--2--|---------5----------------4-------4-4-4-4--|

  "All right!"     "Let all"  "through"    "you"                "again""again"
G|-------------|--------------|-----------|----------------------------------|
D|-------3-----|--------------|-----------|----------------------------------|
A|-6--2-----1--|-1---1--------|--4--0--2--|-7---5-3---2-0--0-0--0------------|
E|-------------|------2---2-4-|-----------|----------------------4-2---2-2-1-|

 "No good"    "do.."         "..again!"                              the end
G|--------------------------|------------------------------------------------|
D|--------------4---4-4-4-4-|------------------------------------------------|
A|--7---5---4---------------|-----2--5-----4-----------------------------2---|
E|--------------------------|-----------4--------3------5--------------------|

| /  slide up
| \  slide down
| h  hammer-on
| p  pull-off
| ~  vibrato
| +  harmonic
| x  Mute note
===============================================================================
Добавлено: 07.05.2016
Другие материалы по этой песне:
  • Аккорды и текст

Страница создана 07.05.2016
http://primanota.ru/wicked/no-good-deed-chords.htm
Привет, Гость.
Предлагаем пройти революционный курс по гитаре.
Подарок от PrimaNota.Ru, забирай!