PrimaNota.ru - самый крупный в мире бесплатный архив песенных текстов, аккордов, табулатур и нот


Whole Wheat Bread - Broke - таба, видео

Регистрация Запомнить меня
Войти через:  Facebook Google Twitter Vk Yandex Mail.ru

Whole Wheat Bread - Broke - таба, видео

Печатать
Просмотров: 85
Уроки эстрадного вокала в Санкт-Петербурге
This is by an underground punk band from Jacksonville, Florida. They're signed to
Fighting Records and their first album, "Minority Rules" came out in 2005. Check
them out at www.wholewheatbread.net

e|--------------------------------------------------------------------------------------|
B|--------------------------------------------------------------------------------------|
G|-5-5-------------------------------------------5-5------------------------------------|
D|-5-5--2--3--2-55-3--2--0-5-5-2--3-0-3-3-2--3-0-5-5-2--3--2-55-3--2--0-5-5-5-5-3-3-3-3-|
A|-3-3---------------------5-5--------3-3--------3-3--------------------5-5-5-5-3-3-3-3-|
E|-------------------------3-3--------1-1-------------------------------3-3-3-3-1-1-1-1-|

e|--------------------------------------------------------------------------------------|
B|--------------------------------------------------------------------------------------|
G|--------5~----------------------------------------------------------------------------|
D|--------5~------------7~----------------5~-------------------3~-----------------------|
A|--------3~------------7~----------------5~-------------------3~-----------------------|
E|----------------------5~----------------3~-------------------1~-----------------------|
  They're pulling up…   There's no time…  Hide the weed…   And try hard not to laugh.

e|---------------------------------------3~---------------------------------------------|
B|--------------------------------------------------------------------------------------|
G|--------5~---------------------------------------------------10-----------------------|
D|--------5~------------7~-------------------------------------10-----------------------|
A|--------3~------------7~--------------------------------------8-----------------------|
E|----------------------5~-------------------3~-----------------------------------------|
     ‘Cuz I fucked up…  Getting busted…   Shit, I've got…      Laying in my lap. 

e|--------------------------------------------------------------------------------------|
B|--------------------------------------------------------------------------------------|
G|-------------------9-9-9-9-9-9-9-9-9-10101010-12-12-12-1210101010-12-12-12-12---------|
D|-7-7-7-7-7-7-7-7-7-9-9-9-9-9-9-9-9-9--x-x-x-x--x--x--x--x-x-x-x-x--x--x--x--x---------| 
A|-7-7-7-7-7-7-7-7-7-7-7-7-7-7-7-7-7-7--8-8-8-8-10-10-10-10-8-8-8-8-10-10-10-10---------|
E|-5-5-5-5-5-5-5-5-5--------------------------------------------------------------------|
If you were where I'm at you would do the same god damn thing
It ain't because I'm black it's just because I don't have a thing, I'm 19 years old and…

Broke…
e|--------------------------------------------------------------------------------------|
B|--------------------------------------------------------------------------------------|
G|-5-5-------------------------------------------5-5------------------------------------|
D|-5-5--2--3--2-55-3--2--0-5-5-2--3-0-3-3-2--3-0-5-5-2--3--2-55-3--2--0-5-5-5-5-3-3-3-3-|
A|-3-3---------------------5-5--------3-3--------3-3--------------------5-5-5-5-3-3-3-3-|
E|-------------------------3-3--------1-1-------------------------------3-3-3-3-1-1-1-1-|
…As fuck.  

e|---------------------------------------3~---------------------------------------------|
B|--------------------------------------------------------------------------------------|
G|--------5~---------------------------------------------------10-----------------------|
D|--------5~------------7~-------------------------------------10-----------------------|
A|--------3~------------7~--------------------------------------8-----------------------|
E|----------------------5~-------------------3~-----------------------------------------|
I'm a pothead…          Label me…       There's not a penny…   So give me all your change

e|--------------------------------------------------------------------------------------|
B|--------------------------------------------------------------------------------------|
G|-5-5-5-5---7-5-5---5-5-5-5-9--5---5-5-5-5---7-5-5--9-9-9-7-5--------------------------|
D|-x-x-x-x---x-x-x---x-x-x-x-x--x---x-x-x-x---x-x-x--x-x-x-x-x--------------------------|
A|-3-3-3-3---5-3-3---3-3-3-3-7--3---3-3-3-3---5-3-3--7-7-7-5-3--------------------------|
E|--------------------------------------------------------------------------------------|
 I'm in and out of…   Can't seem to…  Mary Jane always…  but that's…


e|--------------------------------------------------------------------------------------|
B|--------------------------------------------------------------------------------------|
G|-------------------9-9-9-9-9-9-9-9-9-10101010-12-12-12-1210101010-12-12-12-12---------|
D|-7-7-7-7-7-7-7-7-7-9-9-9-9-9-9-9-9-9--x-x-x-x--x--x--x--x-x-x-x-x--x--x--x--x---------| 
A|-7-7-7-7-7-7-7-7-7-7-7-7-7-7-7-7-7-7--8-8-8-8-10-10-10-10-8-8-8-8-10-10-10-10---------|
E|-5-5-5-5-5-5-5-5-5--------------------------------------------------------------------|
If you were where I'm at you would do the same god damn thing
It ain't because I'm black it's just because I don't have a thing, I'm 19 years old and…

Broke as…
e|--------------------------------------------------------------------------------------|
B|--------------------------------------------------------------------------------------|
G|----------------------5-5-5------5-5-5------------------------------------------------|
D|--3-3--222-3-3-3-222--5-5-5-222--5-5-5-222-7-7-7-222-7-7-7-222-5-5-5-222--233--322----|
A|--3-3------3-3-3------3-3-3------3-3-3-----7-7-7-----7-7-7-----5-5-5------------------|
E|--1-1------1-1-1---------------------------5-5-5-----5-5-5-----3-3-3------------------|
  …fuck.                                  Broke as fuck…

e|-------4-5-4-------4-5-4--------4-5-4-------4-5-4--------|
B|-------5-5-5-------5-5-5--------5-5-5-------5-5-5--------|
G|---------------------------------------------------------| x2
D|--3-33---------333---------5-55---------555--------------|
A|--3-33---------333---------5-55---------555--------------|
E|--1-11---------111---------3-33---------333--------------|
Pm-   ..         ...           ..         ...

e|-------------------------------------------------------|
B|-------------------------------------------------------|
G|-5-5---------------------------------------------------|
D|-5-5--2--3--0-55-3--2--0-5-5-5-5-3-3-3-3---------------|
A|-3-3---------------------5-5-5-5-3-3-3-3---------------|
E|-------------------------3-3-3-3-1-1-1-1---------------|

Repeat during “I'm 19 years old and broke as fuck”

~End~
Добавлено: 29.02.2012
Другие материалы по этой песне:
  • Аккорды и текст

Страница создана 29.02.2012
http://primanota.ru/whole-wheat-bread/broke-chords.htm
Привет, Гость.
Предлагаем пройти революционный курс по гитаре.
Подарок от PrimaNota.Ru, забирай!