PrimaNota.ru - самый крупный в мире бесплатный архив песенных текстов, аккордов, табулатур и нот


Who - Were Not Gonna Take It See Me Feel Me - таба, видео

Регистрация Запомнить меня
Войти через:  Facebook Google Twitter Vk Yandex Mail.ru

Who - Were Not Gonna Take It See Me Feel Me - таба, видео

Печатать
Просмотров: 148
WE'RE NOT GONNA TAKE IT/SEE MEE, FEEL ME

As recorded by The Who
(From the 1969 Album TOMMY)

Words and Music by Pete Townshend

Transcribed by Slowhand 


Gtr I (E A D G B E) - 'Pete Townshend - Electric Guitar'


   Intro                               1st & 2nd Verses
    Q=136
    N.C.    G      N.C.    G            N.C.    G      N.C.    C/G
   4/4
    Gtr I
    PM----|        PM----|              PM----|        PM----|
    e e e e H      e e e e H            e e e e H      e e e e H
||----------3----|---------3-----||-||----------3----|---------3----|
||o---------0----|---------0----o||-||o---------0----|---------1----|
||----------0----|---------0-----||-||----------0----|---------0----|
||----------0----|---------0-----||-||----------0----|---------2----|
||o--------------|--------------o||-||o--------------|--------------|
||--3-3-3-3-3----|-3-3-3-3-3-----||-||--3-3-3-3-3----|-3-3-3-3-3----|


  N.C.    C/G    N.C.    G      F
  PM----|        PM----|
  e e e e H      e e e e H      W          H.      E E
|---------3----|---------3----|-1--------|-1-------1---|
|---------1----|---------0----|-1--------|-1-------1---|
|---------0----|---------0----|-2--------|-2-------2---|
|---------2----|---------0----|-3--------|-3-------3---|
|--------------|--------------|-3--------|-3-------3---|
|-3-3-3-3-3----|-3-3-3-3-3----|-1--------|-1-------1---|


  Em                          Eb
  W           H    +E  E Q    Q.   E +Q   E E   Q.   E +Q   E E
|-0--------|-^0----(0)-0-0--|-----------------|-----------------|
|-0--------|-^0----(0)-0-0--|-8----8-(8)--x---|-8----8-(8)--x---|
|-0--------|-^0----(0)-0-0--|-8----8-(8)--x---|-8----8-(8)--x---|
|-2--------|-^2----(2)-2-2--|-8----8-(8)--x---|-8----8-(8)--x---|
|-2--------|-^2----(2)-2-2--|-6----6-(6)--x---|-6----6-(6)--x---|
|-0--------|-^0----(0)-0-0--|-----------------|-----------------|


  G                                  C    G           C    G
  H    +E  Q  E   Q.   E +E  E E E   Q  E E +Q   Q    Q  E E +Q   Q
|-3----(3)-3--3-|-3----3-(3)-3-x---|------3-(3)-----|------3-(3)-----|
|-0----(0)-0--0-|-0----0-(0)-0-x---|-1----0-(0)-----|-1----0-(0)-----|
|-0----(0)-0--0-|-0----0-(0)-0-x---|-0----0-(0)-----|-0----0-(0)-----|
|-0----(0)-0--0-|-0----0-(0)-0-x---|-2----0-(0)-----|-2----0-(0)-----|
|---------------|------------------|-3--------------|-3--------------|
|-3----(3)-3--3-|-3----3-(3)-3-x---|------3-(3)-----|------3-(3)-----|


  C       G       G5    F5 G           G            N.C.
                                       PM----|
  H    Q  E E   E E E E Q  E E         e e e e Q.   E   E E E E a Q  E E    4x
|---------3---|-----------------||-||----------3------|---------------------||
|-1-------0---|----------------o||-||o---------0------|--------------------o||
|-0-------0---|------------4----||-||----------0------|---------------------||
|-2-------0---|---5-5-5-3--5----||-||----------0------|---2-2---2-3--2------||
|-3-----------|---5-5-5-3--5---o||-||o--------------3-|-3-----3------------o||
|---------3---|---3-3-3-1--3----||-||--3-3-3-3-3------|---------------------||


 Chorus
  C                  G                  F      C        G
  Q.   E +E  E E E   Q.   E +E  E E E   Q  E E Q  E E   Q.   E +E  E E E
|------------------|-3----3-(3)-3-3---|-1--1----------|-3----3-(3)-3-3-x-|
|-1----1-(1)-1-1---|-0----0-(0)-0-0---|-1--1---1----x-|-0----0-(0)-0-0-x-|
|-0----0-(0)-0-0---|-0----0-(0)-0-0---|-2--2---0----x-|-0----0-(0)-0-0-x-|
|-2----2-(2)-2-2---|-0----0-(0)-0-0---|-3--3---2----x-|-0----0-(0)-0-0-x-|
|-3----3-(3)-3-3---|------------------|-3--3---3----x-|------------------|
|------------------|-3----3-(3)-3-3-0-|-1--1----------|-3----3-(3)-3-3-x-|


  C                  G                  F            C
  Q.   E +E  E E E   Q.   E +E  E E E   H.      Q    H.      Q
|------------------|-3----3-(3)-3-3---|-1----------|------------|
|-1----1-(1)-1-1---|-0----0-(0)-0-0---|-1----------|-1----------|
|-0----0-(0)-0-0---|-0----0-(0)-0-0---|-2----------|-0----------|
|-2----2-(2)-2-2---|-0----0-(0)-0-0---|-3----------|-2----------|
|-3----3-(3)-3-3---|------------------|-3----------|-3----------|
|------------------|-3----3-(3)-3-3-0-|-1----------|------------|


  Bb    Am        G
                  PM----|      PM-
  Q  Q  Q  Q      e e e e Q.   e
|-------------||----------3------|
|-3-----1-----||o---------0------|
|-3-----2-----||----------0------|
|-3-----2-----||----------0------|
|-1-----0-----||o--------------0-|
|-------------||--3-3-3-3-3------|


                     3rd Verse
    C     F/C C       N.C.    G      N.C.    C/G
 -|                   PM----|        PM----|
  e E E E E E E E     e e e e H      e e e e H
|---0-----1---0----||---------3----|---------3----|
|---1-----1---1---o||---------0----|---------1----|
|---0-----2---0----||---------0----|---------0----|
|---2---3-3---2----||---------0----|---------2----|
|---3---3-3---3---o||--------------|--------------|
|-3----------------||-3-3-3-3-3----|-3-3-3-3-3----|


  N.C.    C/G    N.C.    G      F
  PM----|        PM----|
  e e e e H      e e e e H      W          H.      E E
|---------3----|---------3----|-1--------|-1-------1---|
|---------1----|---------0----|-1--------|-1-------1---|
|---------0----|---------0----|-2--------|-2-------2---|
|---------2----|---------0----|-3--------|-3-------3---|
|--------------|--------------|-3--------|-3-------3---|
|-3-3-3-3-3----|-3-3-3-3-3----|-1--------|-1-------1---|


  Em                          Eb
  W           H    +E  E Q    Q.   E +Q   E E   Q.   E +Q   E E
|-0--------|-^0----(0)-0-0--|-----------------|-----------------|
|-0--------|-^0----(0)-0-0--|-8----8-(8)--x---|-8----8-(8)--x---|
|-0--------|-^0----(0)-0-0--|-8----8-(8)--x---|-8----8-(8)--x---|
|-2--------|-^2----(2)-2-2--|-8----8-(8)--x---|-8----8-(8)--x---|
|-2--------|-^2----(2)-2-2--|-6----6-(6)--x---|-6----6-(6)--x---|
|-0--------|-^0----(0)-0-0--|-----------------|-----------------|


  G                                  C    G           C    G
  H    +E  Q  E   Q.   E +E  E E E   Q  E E +Q   Q    Q  E E +Q   Q
|-3----(3)-3--3-|-3----3-(3)-3-x---|------3-(3)-----|------3-(3)-----|
|-0----(0)-0--0-|-0----0-(0)-0-x---|-1----0-(0)-----|-1----0-(0)-----|
|-0----(0)-0--0-|-0----0-(0)-0-x---|-0----0-(0)-----|-0----0-(0)-----|
|-0----(0)-0--0-|-0----0-(0)-0-x---|-2----0-(0)-----|-2----0-(0)-----|
|---------------|------------------|-3--------------|-3--------------|
|-3----(3)-3--3-|-3----3-(3)-3-x---|------3-(3)-----|------3-(3)-----|


                                   PM----|
  H    Q  E E   E E E E Q  E E     e e e e Q.   E   E E E E a Q  E E  4x
|---------3---|----------------||----------3------|-------------------||
|-1-------0---|----------------||o---------0------|------------------o||
|-0-------0---|------------4---||----------0------|-------------------||
|-2-------0---|---5-5-5-3--5---||----------0------|---2-2---2h3--2----||
|-3-----------|---5-5-5-3--5---||o--------------3-|-3-----3----------o||
|---------3---|---3-3-3-1--3---||--3-3-3-3-3------|-------------------||


   Chorus
    C                  G                  F     C        G
    Q.   E +E  E E E   Q.   E +E  E E E   Q  Q  Q  E E   Q.   E +E  E E E   3x
||-------------------|-3----3-(3)-3-3-x-|-1--1---------|-3----3-(3)-3-3-x---||
||o-1----1-(1)-1-1---|-0----0-(0)-0-0-x-|-1--1--1--x-x-|-0----0-(0)-0-0-x--o||
||--0----0-(0)-0-0---|-0----0-(0)-0-0-x-|-2--2--0--x-x-|-0----0-(0)-0-0-x---||
||--2----2-(2)-2-2---|-0----0-(0)-0-0-x-|-3--3--2--x-x-|-0----0-(0)-0-0-x---||
||o-3----3-(3)-3-3---|------------------|-3--3--3--x-x-|-------------------o||
||-----------------3-|-3----3-(3)-3-3-x-|-1--1---------|-3----3-(3)-3-3-x---||


  C               G            F            C
  Q.   E Q  E E   H.      Q    H.      Q    H.      Q
|---------------|-3----------|-1----------|------------|
|-1----1-1--x---|-0----------|-1----------|-1----------|
|-0----0-0--x---|-0----------|-2----------|-0----------|
|-2----2-2--x---|-0----------|-3----------|-2----------|
|-3----3-3--x---|------------|-3----------|-3----------|
|---------------|-3----------|-1----------|------------|


  Bb    Am      N.C.    G          C   F/C   C       G5
                PM----|      PM--|                                    PM
                                                     |-3-| |-3-|
  Q  Q  Q  Q    e e e e Q.   e   e E E E E E E E     E E E E E E Q.   E
|-------------|---------3------|---0-----1---0---||-----------------------|
|-3-----1-----|---------0------|---1-----1---1---||o----------------------|
|-3-----2-----|---------0------|---0-----2---0---||-----------------------|
|-3-----2-----|---------0------|---2---3-3---2---||-----------------------|
|-1-----0-----|--------------0-|---3---3-3---3---||o-5-5-5-5-5-5-5----0---|
|-------------|-3-3-3-3-3------|-3---------------||--3-3-3-3-3-3-3--------|


  C     F/C   C       G5                G            Fadd9
  PM
  e E E E E E E E  3x E E E E E E E E   H.      Q    H.      Q
|---0-----1---0----||-----------------|-3----------|-3----------|
|---1-----1---1---o||-----------------|-3----------|-1----------|
|---0-----2---0----||-----------------|-4----------|-2----------|
|---2---3-3---2----||-----------------|-5----------|-3----------|
|---3---3-3---3---o||-5-5-5-5-5-5-5-5-|-5----------|------------|
|-3----------------||-3-3-3-3-3-3-3-3-|-3----------|-1----------|


  C            Bb                           A
  H.      Q    H.      Q    H.      +E  E   E E E E E E E E
|-0----------|------------|---------------|-----------------|
|-1----------|-3----------|-3-------(3)---|-2-2-2-2-2-2-2-2-|
|-0----------|-3----------|-3-------(3)---|-2-2-2-2-2-2-2-2-|
|-2----------|-3----------|-3-------(3)---|-2-2-2-2-2-2-2-2-|
|-3----------|-1----------|-1-------(1)-0-|-0-0-0-0-0-0-0-0-|
|------------|------------|---------------|-----------------|


                    E/D          D/E          E/D          D/E
  E E E E E E E E   H.      Q    H.      Q    H.      Q    H.      Q
|-----------------|-4----------|-2----------|-4----------|-2----------||
|-2-2-2-2-2-2-2-x-|-5----------|-3----------|-5----------|-3----------||
|-2-2-2-2-2-2-2-x-|-4----------|-2----------|-4----------|-2----------||
|-2-2-2-2-2-2-2-x-|-0----------|-2----------|-0----------|-2----------||
|-0-0-0-0-0-0-0-x-|------------|------------|------------|------------||
|-----------------|------------|------------|------------|------------||


   See Me, Feel Me
    Slower Q=68                          1.
    Ebmaj7     Fsus4F       Fsus4F        G
    W          H    Q  Q    H    Q.   E   Q  Q  E +E   E E
||--3--------|-1----------|-------------|-------7-(7)\-3----||
||o-3--------|-1----1-----|-1----1------|-0------------3---o||
||--3--------|-3----2-----|-3----2------|-0-----7-(7)\------||
||--1--------|-3----3-----|-3----3------|-0--0--------------||
||o----------|------------|-------------|------------------o||
||-----------|------------|-----------3-|-3-----------------||


  2.
  G                   Ebmaj7  Fsus4F       Fsus4F
  H     Q   Q    H    Q  Q    H    Q  Q    H    H      Q  Q  Q  E E
|-------3------|------6-----|-6----5-----|-6----5----|----------------|
|-0-----0------|------8-----|-6----6-----|-6----6----|-8--------0-----|
|-0-----0------|------7-----|-5----5-----|-5----5----|----------0-----|
|-0-----0------|------------|------------|-----------|----------0-----|
|--------------|------------|------------|-----------|------------0---|
|-3----(3)-----|------------|------------|-----------|----------------|


                                     Faster Q=108
  Ebmaj7      Fsus4F      Fsus4F        Em
  H    H      H    H      H    Q  Q      Q  E E E E E E
|-3----3----|-----------|------------||------------------|
|-3----3----|-1----1----|-1----1-----||------------------|
|-3----3----|-3----2----|-3----2-----||-^0---------------|
|-1----1----|-3----3----|-3----3-----||-^2---------------|
|-----------|-----------|------------||-^2---------------|
|-----------|-----------|------------||-^0--0-0-0-0-0-0--|


                                                         Out-Chorus
                                                      $
                         B   B7sus4       B               A       B
     PM----|   PM----|
  Q  e s s e E s s s s   E E E E Q  E E   Q  Q  Q  Q      Q  E. S Q  Q
|-0--------------------|---------5------|-------------||-----------------|
|-0--------------------|-----5---5------|-4--4--4--4--||o-2--2--x-4--4---|
|-0----------0---------|-4---2---2--2-2-|-4--4--4--4--||--2--2--x-4--4---|
|----------------------|-4---2-2-2--2-2-|-4--4--4--4--||--2--2--x-4--4---|
|----2-----2---------0-|-2-2---2----2-2-|-2--2--2--2--||o-0--0--x-2--2---|
|----0-0-0-0---0-2-4---|----------------|-------------||-----------------|


  C              A        B        E             A      B
  Q  Q  Q  E E   Q  E S S Q  E E   Q  Q  Q  Q    Q  E E Q  Q
|--------------|-----------------|-0--0--0--0--|--------------|
|-5--5--5--5-x-|-2--2-x-x-4--4---|-0--0--0--0--|-2--2---4--4--|
|-5--5--5--5-x-|-2--2-x-x-4--4---|-1--1--1--1--|-2--2---4--4--|
|-5--5--5--5-x-|-2--2-x-x-4--4---|-2--2--2--2--|-2--2---4--4--|
|-3--3--3--3-x-|-0--0-x-x-2--2---|-2--2--2--2--|-0--0-0-2--2--|
|--------------|---------------0-|-0--0--0--0--|--------------|


                        To Coda
  C             G     D           Bsus4                   B
  Q  Q  Q  Q    Q  Q  Q  S S E    E E E E E S S S S S S   Q  E S S E E E E
|-------------|-3--3--2--2-2----|-7-7-7-7-7-7-7-7-7-7-7-|-7--7-7-7-7-7-7-x--|
|-5--5--5--5--|-3--3--3--3-3----|-7-7-7-7-7-7-7-7-7-7-7-|-7--7-7-7-7-7-7-x--|
|-5--5--5--5--|-0--0--2--2-2----|-9-9-9-9-9-9-9-9-9-9-9-|-8--8-8-8-8-8-8-x--|
|-5--5--5--5--|-0--0--0--0-0----|-9-9-9-9-9-9-9-9-9-9-9-|-9--9-9-9-9-9-9-x--|
|-3--3--3--3--|-----------------|-----------------------|-------------------|
|-------------|-3--3------------|-7-7-7-7-7-7-7-7-7-7-7-|-7--7-7-7-7-7-7-x--|


  A        B        C             A      B        N.C.    E
  Q  E S S Q  E E   Q  Q  Q  Q    Q  E E Q  E E   S S S S Q  S S S S Q
|-----------------|-------------|---------------|---------0----------0--|
|-2--2-2-2-4--4-x-|-5--5--5--5--|-2--2-x-4--4-x-|---------0----------0--|
|-2--2-2-2-4--4-x-|-5--5--5--5--|-2--2-x-4--4-x-|---------1----------1--|
|-2--2-2-2-4--4-x-|-5--5--5--5--|-2--2-x-4--4-x-|---------2----------2--|
|-0--0-0-0-2--2-x-|-3--3--3--3--|-0--0-x-2--2-x-|---------2----------2--|
|-----------------|-------------|---------------|-0-0-0-0-0--0-0-0-0-0--|


  A        B         C             G      D        Bsus4
  Q  E S S Q  E. S   Q  Q  Q  Q    Q  E E Q  E E   E E E E E E E E
|------------------|-------------|-3--3-x-2--2-x-|-7-7-7-7-7-7-7-7-|
|-2--2-x-x-4--4--4-|-5--5--5--5--|-3--3-x-3--3-x-|-7-7-7-7-7-7-7-7-|
|-2--2-x-x-4--4--4-|-5--5--5--5--|-0--0-x-2--2-x-|-9-9-9-9-9-9-9-9-|
|-2--2-x-x-4--4--4-|-5--5--5--5--|-0--0-x-0--0-x-|-9-9-9-9-9-9-9-9-|
|-0--0-x-x-2--2--2-|-3--3--3--3--|---------------|-----------------|
|------------------|-------------|-3--3-x--------|-7-7-7-7-7-7-7-7-|


  1.                 2.
  B                   B
  E E E E E E E E     E E E E E E E E
|-7-7-7-7-7-7-x----||-7-7-7-7-7-7-7-7-|
|-7-7-7-7-7-7-x---o||-7-7-7-7-7-7-7-7-|
|-8-8-8-8-8-8-x----||-8-8-8-8-8-8-8-8-|
|-9-9-9-9-9-9-x----||-9-9-9-9-9-9-9-9-|
|---------------0-o||-----------------|
|-7-7-7-7-7-7-x----||-7-7-7-7-7-7-7-7-|


                             D.S. al Coda
  E E S S E E E E E   S E. E S S E E E E
|-7-7-7-7-7-7-7-7-7-|-7-7--7-7-7-7-7-7-7--||
|-7-7-7-7-7-7-7-7-7-|-7-7--7-7-7-7-7-7-7--||
|-8-8-8-8-8-8-8-8-8-|-8-8--8-8-8-8-8-8-8--||
|-9-9-9-9-9-9-9-9-9-|-9-9--9-9-9-9-9-9-9--||
|-------------------|---------------------||
|-7-7-7-7-7-7-7-7-7-|-7-7--7-7-7-7-7-7-7--||


  &
  B7sus4 N.C.      B7sus4   N.C.    B                 A        B
  Q  E E E E E E   Q  E E E E E E   E E E E E E E E   Q  E S S Q  E E
|-5----5---------|-5----5---------|-----------------|-----------------|
|-5----5---------|-5----5---------|-4-4-4-4-4-4-4-4-|-2--2-2-2-4--4-x-|
|-2----2---------|-2----2---------|-4-4-4-4-4-4-4-4-|-2--2-2-2-4--4-x-|
|-2----2---------|-2----2---------|-4-4-4-4-4-4-4-4-|-2--2-2-2-4--4-x-|
|-2--2-2---2-2-2-|-2--2-2---2-2-2-|-2-2-2-2-2-2-2-2-|-0--0-0-0-2--2-x-|
|--------0-------|--------0-------|-----------------|-----------------|


  C             A      B        N.C.    E  N.C.    E
  Q  Q  Q  Q    Q  E E Q  E E   S S S S Q  S S S S Q
|-------------|---------------|---------0----------0--|
|-5--5--5--5--|-2--2-x-4--4-x-|---------0----------0--|
|-5--5--5--5--|-2--2-x-4--4-x-|---------1----------1--|
|-5--5--5--5--|-2--2-x-4--4-x-|---------2----------2--|
|-3--3--3--3--|-0--0-x-2--2-x-|---------2----------2--|
|-------------|---------------|-0-0-0-0-0--0-0-0-0-0--|


  A        B         C             Bsus4
  Q  E S S Q  E. S   Q  Q  Q  Q    E E E E E E E E
|------------------|-------------|-7-7-7-7-7-7-7-7-*|
|-2--2-x-x-4--4--4-|-5--5--5--5--|-7-7-7-7-7-7-7-7-*|
|-2--2-x-x-4--4--4-|-5--5--5--5--|-9-9-9-9-9-9-9-9-*|
|-2--2-x-x-4--4--4-|-5--5--5--5--|-9-9-9-9-9-9-9-9-*|
|-0--0-x-x-2--2--2-|-3--3--3--3--|-----------------*|
|------------------|-------------|-7-7-7-7-7-7-7-7-*|


Duration Legend
---------------
W - whole; H - half; Q - quarter; E - 8th; S - 16th; T - 32nd; X - 64th; a - acciaccatura
+ - note tied to previous; . - note dotted; .. - note double dotted
Uncapitalized letters represent notes that are staccato (1/2 duration)
Irregular groupings are notated above the duration line
Duration letters will always appear directly above the note/fret number it represents the
duration for.  Duration letters with no fret number below them represent rests.  Multi-
bar rests are notated in the form Wxn, where n is the number of bars to rest for.  Low
melody durations appear below the staff

Tablature Legend
----------------
 h   - hammer-on
 p   - pull-off
 b   - bend
 pb  - pre-bend
 r   - bend release (if no number after the r, then release immediately)
 /\  - slide into or out of (from/to "nowhere")
 s   - legato slide
 S   - shift slide
  - natural harmonic
[n]  - artificial harmonic
n(n) - tapped harmonic
 ~   - vibrato
 tr  - trill
 T   - tap
 TP  - trem. picking
 PM  - palm muting
\n/  - tremolo bar dip; n = amount to dip
 \n  - tremolo bar down
 n/  - tremolo bar up
/n\  - tremolo bar inverted dip
 =   - hold bend; also acts as connecting device for hammers/pulls
 <>  - volume swell (louder/softer)
 x   - on rhythm slash represents muted slash
 o   - on rhythm slash represents single note slash

Misc Legend
-----------
 |  - bar
||  - double bar
||o - repeat start
o|| - repeat end
*|  - double bar (ending)
 :  - bar (freetime)
 $  - Segno
 &  - Coda
Tempo markers -  = BPM(8/16=s8/s16), where s8 = swing 8ths, s16 = swing 16ths
Добавлено: 28.08.2015
Другие материалы по этой песне:

Страница создана 18.05.2012
http://primanota.ru/who/were-not-gonna-take-it-see-me-feel-me-chords.htm
Привет, Гость.
Предлагаем пройти революционный курс по гитаре.
Подарок от PrimaNota.Ru, забирай!