PrimaNota.ru - самый крупный в мире бесплатный архив песенных текстов, аккордов, табулатур и нот


Who - Theres A Doctor - таба, бас-таба, видео

Регистрация Запомнить меня
Войти через:  Facebook Google Twitter Vk Yandex Mail.ru

Who - Theres A Doctor - таба, бас-таба, видео

Печатать
Просмотров: 179
Уроки эстрадного вокала в Санкт-Петербурге
THERE'S A DOCTOR

As recorded by The Who
(From the 1969 Album TOMMY)

Words and Music by Pete Townshend

Transcribed by Slowhand


Gtr I (E A D G B E) - 'Pete Townshend - Electric Guitar'


  Q=92
  Bb  F/A Gm  F     Bb  F   Eb  Bb/D
 4/4
  Gtr I (Clean El. Gtr.)
  E E E E E E E E   E E E E E E E E
|-----1-1-3-3-1-1-|-----1-1---------|
|-3-3-1-1-3-3-1-1-|-3-3-1-1-8-8-3-3-|
|-3-3-2-2-3-3-2-2-|-3-3-2-2-8-8-3-3-|
|-3-3-3-3-5-5-3-3-|-3-3-3-3-8-8-3-3-|
|-1-1-0-0-5-5-3-3-|-1-1-3-3-6-6-5-5-|
|---------3-3-1-1-|-----1-1---------|


  Bb  F/A Gm  F     Bb  F/A Gm  F
  E E E E E E E E   E E E E E E E E
|-----1-1-3-3-1-1-|-----1-1-3-3-1-1-|
|-3-3-1-1-3-3-1-1-|-3-3-1-1-3-3-1-1-|
|-3-3-2-2-3-3-2-2-|-3-3-2-2-3-3-2-2-|
|-3-3-3-3-5-5-3-3-|-3-3-3-3-5-5-3-3-|
|-1-1-0-0-5-5-3-3-|-1-1-0-0-5-5-3-3-|
|---------3-3-1-1-|---------3-3-1-1-|


  Bb  F/A Gm  F     Bb  F   Eb  Bb/D
  E E E E E E E E   E E E E E E E E
|-----1-1-3-3-1-1-|-----1-1---------|
|-3-3-1-1-3-3-1-1-|-3-3-1-1-8-8-3-3-|
|-3-3-2-2-3-3-2-2-|-3-3-2-2-8-8-3-3-|
|-3-3-3-3-5-5-3-3-|-3-3-3-3-8-8-3-3-|
|-1-1-0-0-5-5-3-3-|-1-1-3-3-6-6-5-5-|
|---------3-3-1-1-|-----1-1---------|


  Bb  F/A Gm  F     Bb  F/A Gm  F
  E E E E E E E E   E E E E E E Q    +W
|-----1-1-3-3-1-1-|-----1-1-3-3-1--|-(1)----*|
|-3-3-1-1-3-3-1-1-|-3-3-1-1-3-3-1--|-(1)----*|
|-3-3-2-2-3-3-2-2-|-3-3-2-2-3-3-2--|-(2)----*|
|-3-3-3-3-5-5-3-3-|-3-3-3-3-5-5-3--|-(3)----*|
|-1-1-0-0-5-5-3-3-|-1-1-0-0-5-5-3--|-(3)----*|
|---------3-3-1-1-|---------3-3-1--|-(1)----*|


Duration Legend
---------------
W - whole; H - half; Q - quarter; E - 8th; S - 16th; T - 32nd; X - 64th; a - acciaccatura
+ - note tied to previous; . - note dotted; .. - note double dotted
Uncapitalized letters represent notes that are staccato (1/2 duration)
Irregular groupings are notated above the duration line
Duration letters will always appear directly above the note/fret number it represents the
duration for.  Duration letters with no fret number below them represent rests.  Multi-
bar rests are notated in the form Wxn, where n is the number of bars to rest for.  Low
melody durations appear below the staff

Tablature Legend
----------------
 h   - hammer-on
 p   - pull-off
 b   - bend
 pb  - pre-bend
 r   - bend release (if no number after the r, then release immediately)
 /\  - slide into or out of (from/to "nowhere")
 s   - legato slide
 S   - shift slide
  - natural harmonic
[n]  - artificial harmonic
n(n) - tapped harmonic
 ~   - vibrato
 tr  - trill
 T   - tap
 TP  - trem. picking
 PM  - palm muting
\n/  - tremolo bar dip; n = amount to dip
 \n  - tremolo bar down
 n/  - tremolo bar up
/n\  - tremolo bar inverted dip
 =   - hold bend; also acts as connecting device for hammers/pulls
 <>  - volume swell (louder/softer)
 x   - on rhythm slash represents muted slash
 o   - on rhythm slash represents single note slash

Misc Legend
-----------
 |  - bar
||  - double bar
||o - repeat start
o|| - repeat end
*|  - double bar (ending)
 :  - bar (freetime)
 $  - Segno
 &  - Coda
Tempo markers -  = BPM(8/16=s8/s16), where s8 = swing 8ths, s16 = swing 16ths
Добавлено: 17.10.2015
Вам также может быть интересно:
Другие материалы по этой песне:

Страница создана 28.08.2015
http://primanota.ru/who/theres-a-doctor-chords.htm
Привет, Гость.
Предлагаем пройти революционный курс по гитаре.
Подарок от PrimaNota.Ru, забирай!