PrimaNota.ru - самый крупный в мире бесплатный архив песенных текстов, аккордов, табулатур и нот


Who - Rael 1 - бас-таба, видео

Регистрация Запомнить меня
Войти через:  Facebook Google Twitter Vk Yandex Mail.ru

Who - Rael 1 - бас-таба, видео

Печатать
Просмотров: 111
Rael 1 by The Who

Here's a great song by the Who tabbed out for bass.

Intro/Verse
G|----------| Note: The bass rests during some parts of the
D|------3--5| intro and verses.
A|3--3------|
E|----------|

Chorus
|--0h3-0h3-0h3------------------|
|o-------------0h3-0h3-0h3-0h3-o|
|o-----------------------------o|
|-------------------------------|

Play Verse Again

|-0h3-0h3-0h3-0h3|
|----------------|
|----------------|
|----------------|

Play Chorus Again

|-----------------------|
|5-0-5-0-5-0-5—5-0-5-0-5|
|-----------------------|
|-----------------------|

|---------------------------------------------------|
|o-5-0-5-0-5-0-5—5-0-5-0-5--3-0-3-0-3-0-3-----------|
|o----------------------------------------5-0-5-0-5-|
|---------------------------------------------------|

----------------|
-5-0-5-0-5-0-5-o|
---------------o|
----------------|

|-------------------------------|
|o-----------------------------o|
|o-1--1-1-3--3-3-5--5-5-3--3-3-o|
|-------------------------------|
                                           x3
|-------------------------------------------|
|o-----------------------------------------o|
|o-1--1-1-3--3-3-5--5-5-8--8-8-8--8-8-8--8-o|
|-------------------------------------------|

|----------------------|
|----------------------|
|-1--1-1-3--3-3-5--5-5-|
|----------------------|

----------------------------------------------------------|
----------------------------------------------------------|
-11--11-11-11--11-11-11--11-11-11--11-11--10--------------|
----------------------------------------------------------|

|--------------------------------------------------|
|5-0-5-0-5-0-5--5-0-5-0-5--7-0-7-0-7-0-7--7-0-7-0-7|
|--------------------------------------------------|
|--------------------------------------------------|

|----------------------------------------------------------|
|5-0-5-0-5-0-5--5-0-5-0-5--8-0-8-0-8-0-8--8-0-8-0-8--8-7-5-|
|----------------------------------------------------------|
|----------------------------------------------------------|

--------------------------------------|
-5-0-5-0-5-0-5--3-3--3-33-3--8-0-8-0-8|
--------------------------------------|
--------------------------------------|
                     x8
|-----5-7-5----7-3h5--|---3-5-3----5-1h3|
|o----------7--------o|---------5-------|
|o-5-----------------o|3----------------|
|---------------------|-----------------|

|---5-7-5---7-5-7-5--|---3-5-3----5-1h3---------|
|---------7---------7|---------5----------------|
|5-------------------|3------------------5------|
|--------------------|--------------------------|

|-----------------------|
|o---------------------o|
|o-5-3---5-3-----------o|
|------------5-3-3-3-5--|

|------------------------------------|-------------------|
|------------------------------------|o-----------------o|
|3-1---3-1---------------------------|o-----------------o|
|----------3-1-1-1-3/5-5-5-5-5-5-5-5-|--5-5-5-5-5-5-5-5--|

|------------------------------------------------------------|
|------------------------------------------------------------|
|5-3-5-5-5-5-5-5-5-5-5-3-5-3-3-3-3-3-3-3-3-3-3-3-3-3-3-3-3-3-|
|------------------------------------------------------------|
           This section of 3's (C's) is played from 4:50-5:11
----------|---------------------------------------|
----------|---------------------------------------|
-5-3-5-5-5|3-3-3-3-3-3-3-3-3-3-3-3-3-3-3-3-3-3-3-3|
----------|---------------------------------------|
                   x4
|-----5-7-5----7-3h5--|---3-5-3----5-3h1|-----------|
|o-----------7-------o|---------5-------|-----------|
|o-5-----------------o|3----------------|5----------|
|---------------------|-----------------|-----------|

That's all. Good luck.
(Note: For Rael 2 there is no bass, excluding the Top Gear comercial song.)
Добавлено: 17.06.2012
Другие материалы по этой песне:
  • Аккорды и текст

Страница создана 17.06.2012
http://primanota.ru/who/rael-1-chords.htm
Привет, Гость.
Предлагаем пройти революционный курс по гитаре.
Подарок от PrimaNota.Ru, забирай!