PrimaNota.ru - самый крупный в мире бесплатный архив песенных текстов, аккордов, табулатур и нот


Who - I Am The Sea - текст песни, таба, видео

Регистрация Запомнить меня
Войти через:  Facebook Google Twitter Vk Yandex Mail.ru

Who - I Am The Sea - текст песни, таба, видео

Печатать
Просмотров: 117
I Am The Sea by The Who


Tune down 1/2 step to Eb (Eb Ab Db Gb Bb Eb)
Guitar through effects

[Timing approximate]
(Ebm)
|(0)-----------------------------------------------------------------|
|----------<12--------12---14-----10-----12------7--8----5-----------|
|--------------------------------------------------------------------|
|--------------------------------------------------------------------|
|--------------------------------------------------------------------|
|--------------------------------------------------------------------|
                                 
|--------------------------------------------------------------------|
|-----3---5----\3----5---\3---/5---\3---5----------------------------|
|-----------------------------------------4\2--4--4------------------|
|--------------------------------------------------------------------|
|--------------------------------------------------------------------|
|--------------------------------------------------------------------|

[horn; arr. for guitar]  
|-----------------------|
|10-8-10-11-13----------|
|-----------------------|
|-----------------------|
|-----------------------|
|-----------------------|


Is it me for a moment
Bell boy
Love, reign o'er me
Can you see the real me, can ya, can ya?
Добавлено: 29.10.2013
Другие материалы по этой песне:
  • Аккорды и текст

Страница создана 06.07.2012
http://primanota.ru/who/i-am-the-sea-chords.htm
Привет, Гость.
Предлагаем пройти революционный курс по гитаре.
Подарок от PrimaNota.Ru, забирай!