PrimaNota.ru - самый крупный в мире бесплатный архив песенных текстов, аккордов, табулатур и нот


Who - Cousin Kevin - текст песни, таба, бас-таба, видео

Регистрация Запомнить меня
Войти через:  Facebook Google Twitter Vk Yandex Mail.ru

Who - Cousin Kevin - текст песни, таба, бас-таба, видео

Печатать
Просмотров: 185
Уроки эстрадного вокала в Санкт-Петербурге
COUSIN KEVIN

As recorded by The Who
(From the 1969 Album TOMMY)

Words and Music by John Entwistle

Transcribed by Slowhand


Gtr I (E A D G B E) - 'Pete Townshend - Acoustic Guitar'
Gtr II (E A D G B E) - 'Pete Townshend - Electric Guitar (clean)'
Gtr III (E A D G B E) - 'Pete Townshend - Electric Guitar (w/ light distortion)'


 Intro
  Q=117
  N.C.
 4/4
  Gtr I (Ac. Gtr.)
  E E E E E E E E   E E E E E E E E   E E E E E E E E   E E E E E E E E
|-----------------|-----------------|-----------------|------------------||
|-7-------7-------|-6-------6-------|-7-------7-------|-6-------6--------||
|-----6-------6---|-----6-------6---|-----6-------6---|-----6-------6----||
|---6---6---6---6-|---6---6---6---6-|---6---6---6---6-|---6---6---6---6--||
|-----------------|-----------------|-----------------|------------------||
|-----------------|-----------------|-----------------|------------------||
|
| Gtr II (Clean El. Gtr.)
| E E E E E E E E   E E E E E E E E   E E E E E E E E   E E E E E E E E
|-----------------|-----------------|-----------------|------------------||
|-----------------|-----------------|-----------------|------------------||
|-----------------|-----------------|-----------------|------------------||
|---6---6---6---6-|---6---6---6---6-|---6---6---6---6-|---6---6---6---6--||
|-9---9---9---9---|-8---8---8---8---|-9---9---9---9---|-8---8---8---8----||
|-----------------|-----------------|-----------------|------------------||


 1st Verse
  N.C.
  E E E E E E E E   E E E E E E E E   E E E E E E E E   E E E E E E E E
|-----------------|-----------------|-----------------|-----------------||
|-7-------7-------|-6-------6-------|-7-------7-------|-6-------6-------||
|-----6-------6---|-----6-------6---|-----5-------5---|-----6-------6---||
|---6---6---6---6-|---6---6---6---6-|---6---6---6---6-|---6---6---6---6-||
|-----------------|-----------------|-----------------|-----------------||
|-----------------|-----------------|-----------------|-----------------||
|
| E E E E E E E E   E E E E E E E E   E E E E E E E E   E E E E E E E E
|-----------------|-----------------|-----------------|-----------------||
|-----------------|-----------------|-----------------|-----------------||
|-----------------|-----------------|-----------------|-----------------||
|---6---6---6---6-|---6---6---6---6-|---6---6---6---6-|---6---6---6---6-||
|-9---9---9---9---|-8---8---8---8---|-9---9---9---9---|-8---8---8---8---||
|-----------------|-----------------|-----------------|-----------------||


  E E E E E E E E   E E E E E E E E   E E E E E E E E   E E E E E E E E
|-----------------|-----------------|-----------------|-----------------||
|-----6-------6---|-----5-------5---|-----6-------6---|-----5-------5---||
|---5---5---5---5-|---5---5---5---5-|---4---4---4---4-|---5---5---5---5-||
|-5-------5-------|-5-------5-------|-5-------5-------|-5-------5-------||
|-----------------|-----------------|-----------------|-----------------||
|-----------------|-----------------|-----------------|-----------------||
|
| E E E E E E E E   E E E E E E E E   E E E E E E E E   E E E E E E E E
|-----------------|-----------------|-----------------|-----------------||
|-----------------|-----------------|-----------------|-----------------||
|-----------------|-----------------|-----------------|-----------------||
|---5---5---5---5-|---5---5---5---5-|---5---5---5---5-|---5---5---5---5-||
|-8---8---8---8---|-7---7---7---7---|-8---8---8---8---|-7---7---7---7---||
|-----------------|-----------------|-----------------|-----------------||


  E E E E E E E E   E E E E E E E E   E E E E E E E E   E E E E E E E E
|-----------------|-----------------|-----------------|-----------------||
|-----7-------7---|-----7-------7---|-----7-------7---|-----7-------7---||
|---9---9---9---9-|---8---9---8---8-|---9---9---9---9-|---8---9---8---8-||
|-9-------9-------|-9-------9-------|-8-------8-------|-9-------9-------||
|-----------------|-----------------|-----------------|-----------------||
|-----------------|-----------------|-----------------|-----------------||
|
| E E E E E E E E   E E E E E E E E   E E E E E E E E   E E E E E E E E
|-----------------|-----------------|-----------------|-----------------||
|-----------------|-----------------|-----------------|-----------------||
|-----------------|-----------------|-----------------|-----------------||
|---4---4---4---4-|---4---4---4---4-|---4---4---4---4-|---4---4---4---4-||
|-7---7---7---7---|-6---6---6---6---|-7---7---7---7---|-6---6---6---6---||
|-----------------|-----------------|-----------------|-----------------||


   E  E  E  E  E  E  E  E    E  E  E  E  E  E  E  E
|-11----------11----------|-10----------10----------|
|-------11----------11----|-------11----------11----|
|----10----10----10----10-|----10----10----10----10-|
|-------------------------|-------------------------|
|-------------------------|-------------------------|
|-------------------------|-------------------------|
|
|  E  E  E  E  E  E  E  E    E  E  E  E  E  E  E  E
|-------------------------|-------------------------|
|-------------------------|-------------------------|
|-------------------------|-------------------------|
|-----3-----3-----3-----3-|-----3-----3-----3-----3-|
|--6-----6-----6-----6----|--5-----5-----5-----5----|
|-------------------------|-------------------------|


   E  E  E  E  E  E  E  E    E  E  E  E  E  E  E  E
|-11----------11----------|-10----------10-----------|
|-------11----------11----|-------11----------11-----|
|----10----10----10----10-|----10----10----10----10--|
|-------------------------|--------------------------|
|-------------------------|--------------------------|
|-------------------------|--------------------------|
|
|  E  E  E  E  E  E  E  E    E  E  E  E  E  E  E  E
|-------------------------|--------------------------|
|-------------------------|--------------------------|
|-------------------------|--------------------------|
|-----3-----3-----3-----3-|-----3-----3-----3-----3--|
|--6-----6-----6-----6----|--5-----5-----5-----5-----|
|-------------------------|--------------------------|


  E  E E  E  E  E E  E   E  E E  E E E  Q     E  E  E  E E  E  E  E   W
|-----------10---------|-----------9--------|------10---------10----|------||
|---10---10----10---10-|---10---10-----10---|---10----10---10----10-|------||
|-9----9----------9----|-9----9------9------|-9----------9----------|-9----||
|----------------------|--------------------|-----------------------|------||
|----------------------|--------------------|-----------------------|------||
|----------------------|--------------------|-----------------------|------||
|
| E  E E  E  E  E E  E   E  E E  E E E  E E   E  E  E  E E  E  E  E   W
|----------------------|--------------------|-----------------------|------||
|----------------------|--------------------|-----------------------|------||
|----------------------|--------------------|-----------------------|------||
|----2----2-----2----2-|----2----2---2----2-|----2-----2----2-----2-|------||
|-5----5-----5----5----|-4----4----4----4---|-5-----5----5-----5----|-4----||
|----------------------|--------------------|-----------------------|------||


 Pre-Chorus
  $
  F5               D5                F5                Db5
  Gtrs I, III (Ac. Gtr. & El. Gtr. w/ light dist.)
  Q  E E E E E E   Q.   S S Q  E E   E E E E E E E E   E E E E E E E E
|----------------|-----------------|-----------------|-----------------|
|----------------|-----------------|-----------------|-----------------|
|----------------|-7----7-7-7--7-x-|-----------------|-6-6-6-6-6-6-6-6-|
|-3--3-3-3-3-3-3-|-7----7-7-7--7-x-|-3-3-3-3-3-3-3-3-|-6-6-6-6-6-6-6-6-|
|-3--3-3-3-3-3-3-|-5----5-5-5--5-x-|-3-3-3-3-3-3-3-3-|-4-4-4-4-4-4-4-4-|
|-1--1-1-1-1-1-1-|-----------------|-1-1-1-1-1-1-1-1-|-----------------|


  Bb5               C5                Db5
  E E E E E E E E   E E E E E E E E   E E E E E E E E   E S S E S S E S S E E
|-----------------|-----------------|-----------------|------------------------|
|-----------------|-----------------|-----------------|------------------------|
|-3-3-3-3-3-3-3-3-|-5-5-5-5-5-5-5-5-|-6-6-6-6-6-6-6-6-|-6-6-6-6-6-6-6-6-6-6-6--|
|-3-3-3-3-3-3-3-3-|-5-5-5-5-5-5-5-5-|-6-6-6-6-6-6-6-6-|-6-6-6-6-6-6-6-6-6-6-6--|
|-1-1-1-1-1-1-1-1-|-3-3-3-3-3-3-3-3-|-4-4-4-4-4-4-4-4-|-4-4-4-4-4-4-4-4-4-4-4--|
|-----------------|-----------------|-----------------|------------------------|


  F5                D5                F5                  Db5
  E E E E E E E E   E E E E E E E E   E E E E E E E S S   E E E E E E E S S
|-----------------|-----------------|-------------------|---------------------|
|-----------------|-----------------|-------------------|---------------------|
|-----------------|-7-7-7-7-7-7-7-7-|-------------------|-6-6-6-6-6-6-6-6-6---|
|-3-3-3-3-3-3-3-3-|-7-7-7-7-7-7-7-7-|-3-3-3-3-3-3-3-x-x-|-6-6-6-6-6-6-6-6-6---|
|-3-3-3-3-3-3-3-3-|-5-5-5-5-5-5-5-5-|-3-3-3-3-3-3-3-x-x-|-4-4-4-4-4-4-4-4-4---|
|-1-1-1-1-1-1-1-1-|-----------------|-1-1-1-1-1-1-1-x-x-|---------------------|


  Bb5               C5                Db5               D5
  E E E E E E E E   E E E E E E E E   E E E E E E E E   E E E E E E E E
|-----------------|-----------------|-----------------|-----------------|
|-----------------|-----------------|-----------------|-----------------|
|-3-3-3-3-3-3-3-3-|-5-5-5-5-5-5-5-5-|-6-6-6-6-6-6-6-6-|-7-7-7-7-7-7-7-7-|
|-3-3-3-3-3-3-3-3-|-5-5-5-5-5-5-5-5-|-6-6-6-6-6-6-6-6-|-7-7-7-7-7-7-7-7-|
|-1-1-1-1-1-1-1-1-|-3-3-3-3-3-3-3-3-|-4-4-4-4-4-4-4-4-|-5-5-5-5-5-5-5-5-|
|-----------------|-----------------|-----------------|-----------------|


                                                     To Coda
  C5                Db5
  E E E E E E E E   E E E S S E E E E   E S S E S S E E E E
|-----------------|-------------------|----------------------||
|-----------------|-------------------|----------------------||
|-5-5-5-5-5-5-5-5-|-6-6-6-6-6-6-6-6-6-|-6-6-6-6-6-6-6-6-6----||
|-5-5-5-5-5-5-5-5-|-6-6-6-6-6-6-6-6-6-|-6-6-6-6-6-6-6-6-6----||
|-3-3-3-3-3-3-3-3-|-4-4-4-4-4-4-4-4-4-|-4-4-4-4-4-4-4-4-4----||
|-----------------|-------------------|----------------------||


 Chorus
  F5    Eb5        Db5
   H    Q  E S S   Q  E S S E S S S S S S
|----------------|------------------------|
|----------------|------------------------|
|-10----8--8-x-x-|-6--6-6-6-6-6-6-6-6-x-x-|
|-10----8--8-x-x-|-6--6-6-6-6-6-6-6-6-x-x-|
|--8----6--6-x-x-|-4--4-4-4-4-4-4-4-4-x-x-|
|----------------|------------------------|


  F5    Eb5        Db5
   H    Q  E S S   Q  E S S E S S S S S S
|----------------|--------------------------|
|----------------|--------------------------|
|-10----8--8-x-x-|-6--6-6-6-6-6-6-6-6-x-x---|
|-10----8--8-x-x-|-6--6-6-6-6-6-6-6-6-x-x---|
|--8----6--6-x-x-|-4--4-4-4-4-4-4-4-4-x-x---|
|----------------|--------------------------|


  F5    Eb5        Db5
   H    Q  E S S   Q  E S S E S S S S S S
|----------------|------------------------|
|----------------|------------------------|
|-10----8--8-x-x-|-6--6-6-6-6-6-6-6-6-x-x-|
|-10----8--8-x-x-|-6--6-6-6-6-6-6-6-6-x-x-|
|--8----6--6-x-x-|-4--4-4-4-4-4-4-4-4-x-x-|
|----------------|------------------------|


  F5    Eb5        Db5
   H    Q  E S S   Q  E S S E S S S S S S
|----------------|--------------------------||
|----------------|--------------------------||
|-10----8--8-x-x-|-6--6-6-6-6-6-6-6-6-x-x---||
|-10----8--8-x-x-|-6--6-6-6-6-6-6-6-6-x-x---||
|--8----6--6-x-x-|-4--4-4-4-4-4-4-4-4-x-x---||
|----------------|--------------------------||


  F5    Eb5        Db5                      F5    Eb5
   H    Q  E S S   Q  E S S E S S S S S S    H    Q  E S S
|----------------|------------------------|-----------------||
|----------------|------------------------|-----------------||
|-10----8--8-x-x-|-6--6-6-6-6-6-6-6-6-x-x-|-10----8--8-x-x--||
|-10----8--8-x-x-|-6--6-6-6-6-6-6-6-6-x-x-|-10----8--8-x-x--||
|--8----6--6-x-x-|-4--4-4-4-4-4-4-4-4-x-x-|--8----6--6-x-x--||
|----------------|------------------------|-----------------||


 Interlude
  N.C.
  Gtr I
  H       E Q   E   +Q    E  E E  E E  E    E Q   E +E   E E E
|---------------9-|-(9)--------9---------|----9--------------9-|
|-----------9-----|-------9---------9----|--------9-(9)----9---|
|-----------------|---------11---11---11-|-10-----------10-----|
|-----------------|----------------------|---------------------|
|-----------------|----------------------|---------------------|
|-----------------|----------------------|---------------------|
|
| Gtr II
| E E E E E E E E    E  E E  E E  E E  E    E E E E  E   E E E
|-----------------|----------------------|---------------------|
|-----------------|----------------------|---------------------|
|-----------------|----------------------|---------------------|
|---6---6---6---6-|-----6----6----6----6-|----6---6------6---6-|
|-8---8---8---8---|--9----9----9----9----|--8---8----8-----8---|
|-----------------|----------------------|---------------------|


                           Db
                            PM---------------|
  +E  E E  E  +E   E Q      e E  e E  e E  e E
|-(9)-9------------------|----------------------||
|-------9------------9---|--9----9----9----9----||
|---------11-(11)-11-----|-10---10---10---10----||
|------------------------|-11---11---11---11----||
|------------------------|----------------------||
|------------------------|----------------------||
|
|  E  E E  E   E   E E E    E E  E E  E E  E E
|------------------------|----------------------||
|------------------------|----------------------||
|------------------------|----------------------||
|-----6----6-------6---6-|----6----6----6----6--||
|--9----9------9-----9---|--8----8----8----8----||
|------------------------|----------------------||


 2nd Verse
  Dbsus4                Db
   PM----------------------------------------
   e E  e E  e E  e E    e E  e E  e E  e E
|---------------------|---------------------|
|--9----9----9----9---|--9----9----9----9---|
|-11---11---11---11---|-10---10---10---10---|
|-11---11---11---11---|-11---11---11---11---|
|---------------------|---------------------|
|---------------------|---------------------|
|
|  E E  E E  E E  E E    E E  E E  E E  E E
|---------------------|---------------------|
|---------------------|---------------------|
|---------------------|---------------------|
|----6----6----6----6-|----6----6----6----6-|
|--9----9----9----9---|--8----8----8----8---|
|---------------------|---------------------|


  Ab7                   Db
 -----------------------------------------|
   e E  e E  e E  e E    e E  e E  e E  e E
|---------------------|---------------------|
|--9----9----9----9---|--9----9----9----9---|
|-11---11---11---11---|-10---10---10---10---|
|-10---10---10---10---|-11---11---11---11---|
|---------------------|---------------------|
|---------------------|---------------------|
|
|  E E  E E  E E  E E    E E  E E  E E  E E
|---------------------|---------------------|
|---------------------|---------------------|
|---------------------|---------------------|
|----6----6----6----6-|----6----6----6----6-|
|--9----9----9----9---|--8----8----8----8---|
|---------------------|---------------------|


  Csus4                 C
   PM   PM   PM   PM     PM   PM   PM   PM
   e E  e E  e E  e E    e E  e E  e E  e E
|---------------------|---------------------|
|--8----8----8----8---|--8----8----8----8---|
|-10---10---10---10---|--9----9----9----9---|
|-10---10---10---10---|-10---10---10---10---|
|---------------------|---------------------|
|---------------------|---------------------|
|
|  E E  E E  E E  E E    E E  E E  E E  E E
|---------------------|---------------------|
|---------------------|---------------------|
|---------------------|---------------------|
|----5----5----5----5-|----5----5----5----5-|
|--8----8----8----8---|--7----7----7----7---|
|---------------------|---------------------|


  G7                    C
   PM   PM   PM   PM     PM   PM   PM   PM
   e E  e E  e E  e E    e E  e E  e E  e E
|---------------------|---------------------|
|--8----8----8----8---|--8----8----8----8---|
|-10---10---10---10---|--9----9----9----9---|
|--9----9----9----9---|-10---10---10---10---|
|---------------------|---------------------|
|---------------------|---------------------|
|
|  E E  E E  E E  E E    E E  E E  E E  E E
|---------------------|---------------------|
|---------------------|---------------------|
|---------------------|---------------------|
|----5----5----5----5-|----5----5----5----5-|
|--8----8----8----8---|--7----7----7----7---|
|---------------------|---------------------|


  Bsus4             B                 F#7               B
  PM  PM  PM  PM    PM  PM  PM  PM    PM  PM  PM  PM    PM  PM  PM  PM
  e E e E e E e E   e E e E e E e E   e E e E e E e E   e E e E e E e E
|-----------------|-----------------|-----------------|-----------------|
|-7---7---7---7---|-7---7---7---7---|-7---7---7---7---|-7---7---7---7---|
|-9---9---9---9---|-8---8---8---8---|-9---9---9---9---|-8---8---8---8---|
|-9---9---9---9---|-9---9---9---9---|-8---8---8---8---|-9---9---9---9---|
|-----------------|-----------------|-----------------|-----------------|
|-----------------|-----------------|-----------------|-----------------|
|
| E E E E E E E E   E E E E E E E E   E E E E E E E E   E E E E E E E E
|-----------------|-----------------|-----------------|-----------------|
|-----------------|-----------------|-----------------|-----------------|
|-----------------|-----------------|-----------------|-----------------|
|---4---4---4---4-|---4---4---4---4-|---4---4---4---4-|---4---4---4---4-|
|-7---7---7---7---|-6---6---6---6---|-7---7---7---7---|-6---6---6---6---|
|-----------------|-----------------|-----------------|-----------------|


  Bbsus4            Bb                F7                Bb
  PM  PM  PM  PM    PM  PM  PM  PM    PM  PM  PM  PM    PM  PM  PM  PM
  e E e E e E e E   e E e E e E e E   e E e E e E e E   e E e E e E e E
|-----------------|-----------------|-----------------|------------------|
|-6---6---6---6---|-6---6---6---6---|-6---6---6---6---|-6---6---6---6----|
|-8---8---8---8---|-7---7---7---7---|-8---8---8---8---|-7---7---7---7----|
|-8---8---8---8---|-8---8---8---8---|-7---7---7---7---|-8---8---8---8----|
|-----------------|-----------------|-----------------|------------------|
|-----------------|-----------------|-----------------|------------------|
|
| E E E E E E E E   E E E E E E E E   E E E E E E E E   E E E E E E E E
|-----------------|-----------------|-----------------|------------------|
|-----------------|-----------------|-----------------|------------------|
|-----------------|-----------------|-----------------|------------------|
|---3---3---3---3-|---3---3---3---3-|---3---3---3---3-|---3---3---3---3--|
|-6---6---6---6---|-5---5---5---5---|-6---6---6---6---|-5---5---5---5----|
|-----------------|-----------------|-----------------|------------------|


                                              D.S. al Coda
  Dsus4             A                 E7
  PM  PM  PM  PM    PM  PM  PM  PM    PM  PM  PM  PM    PM
  e E e E e E e E   e E e E e E e E   e E e E e E e E   W
|-----------------|-----------------|-----------------|-------||
|-5---5---5---5---|-5---5---5---5---|-5---5---5---5---|-5-----||
|-7---7---7---7---|-6---6---6---6---|-7---7---7---7---|-6-----||
|-7---7---7---7---|-7---7---7---7---|-6---6---6---6---|-7-----||
|-----------------|-----------------|-----------------|-------||
|-----------------|-----------------|-----------------|-------||
|
| E E E E E E E E   E E E E E E E E   E E E E E E E E   W
|-----------------|-----------------|-----------------|-------||
|-----------------|-----------------|-----------------|-------||
|-----------------|-----------------|-----------------|-------||
|---2---2---2---2-|---2---2---2---2-|---2---2---2---2-|-------||
|-5---5---5---5---|-4---4---4---4---|-5---5---5---5---|-4-----||
|-----------------|-----------------|-----------------|-------||


   Chorus
    &
    F5          Eb5         Db5                       F5          Eb5
    Gtr I
     e  e  e  e e e e e     e e e e   e e   e   e      e  e  e  e e e e e
||---8--8--8--8-6-6-6-6---|-4-4-4-4---4-4---4---4---|--8--8--8--8-6-6-6-6---|
||o-10-10-10-10-8-8-8-8---|-6-6-6-6---6-6---6---6---|-10-10-10-10-8-8-8-8---|
||--10-10-10-10-8-8-8-8---|-6-6-6-6---6-6---6---6---|-10-10-10-10-8-8-8-8---|
||------------------------|-------------------------|-----------------------|
||o-----------------------|-------------------------|-----------------------|
||------------------------|-------------------------|-----------------------|
|
|   Gtr III
|    H          Q   E S S   Q   E S S E S S S S S S    H          Q   E S S
||------------------------|-------------------------|-----------------------|
||o-----------------------|-------------------------|-----------------------|
||--10----------8---8-x-x-|-6---6-6-6-6-6-6-6-6-x-x-|-10----------8---8-x-x-|
||--10----------8---8-x-x-|-6---6-6-6-6-6-6-6-6-x-x-|-10----------8---8-x-x-|
||o--8----------6---6-x-x-|-4---4-4-4-4-4-4-4-4-x-x-|--8----------6---6-x-x-|
||------------------------|-------------------------|-----------------------|


  Db5                         F5          Eb5
  e e e e   e e   e   e        e  e  e  e e e e e
|-4-4-4-4---4-4---4---4----||--8--8--8--8-6-6-6-6---|
|-6-6-6-6---6-6---6---6---o||-10-10-10-10-8-8-8-8---|
|-6-6-6-6---6-6---6---6----||-10-10-10-10-8-8-8-8---|
|--------------------------||-----------------------|
|-------------------------o||-----------------------|
|--------------------------||-----------------------|
|
| Q   E S S E S S S S S S      H          Q   E S S
|--------------------------||-----------------------|
|-------------------------o||-----------------------|
|-6---6-6-6-6-6-6-6-6-x-x--||-10----------8---8-x-x-|
|-6---6-6-6-6-6-6-6-6-x-x--||-10----------8---8-x-x-|
|-4---4-4-4-4-4-4-4-4-x-x-o||--8----------6---6-x-x-|
|--------------------------||-----------------------|


  Db5                       F5          Eb5
  e e e e   e e   e   e      e  e  e  e e e e e
|-4-4-4-4---4-4---4---4---|--8--8--8--8-6-6-6-6-----||
|-6-6-6-6---6-6---6---6---|-10-10-10-10-8-8-8-8-----||
|-6-6-6-6---6-6---6---6---|-10-10-10-10-8-8-8-8-----||
|-------------------------|-------------------------||
|-------------------------|-------------------------||
|-------------------------|-------------------------||
|
| Q   E S S E S S S S S S    H          Q   E S S
|-------------------------|-------------------------||
|-------------------------|-------------------------||
|-6---6-6-6-6-6-6-6-6-x-x-|-10----------8---8-x-x---||
|-6---6-6-6-6-6-6-6-6-x-x-|-10----------8---8-x-x---||
|-4---4-4-4-4-4-4-4-4-x-x-|--8----------6---6-x-x---||
|-------------------------|-------------------------||


 Outro
  N.C.
  H       Q   E E   E E E E E E E E   Q   Q   H
|-----------------|-----------------|-----------------|
|-----------------|-----------------|-----------------|
|-----------------|-----6-----------|-6---------------|
|---------------6-|---6---6---6---6-|-----------------|
|-----------------|-9-------9---9---|-----------------|
|-----------------|-----------------|-----------------|
|
| Gtr II
| E E E E E E E E   E E E E E E E E   E E E E E E E E
|-----------------|-----------------|-----------------|
|-----------------|-----------------|-----------------|
|-----------------|-----------------|-----------------|
|---6---6---6---6-|---6---6---6---6-|---6---6---6---6-|
|-8---8---8---8---|-9---9---9---9---|-8---8---8---8---|
|-----------------|-----------------|-----------------|


  H.=H
  Db5
   W                 W           W
|------------------|----------|--------*|
|------------------|----------|--------*|
|-^6---------------|----------|--------*|
|-^6---------------|----------|--------*|
|-^9---------------|----------|--------*|
|------------------|----------|--------*|
|
|  E E E E E E E E   W          +W
|------------------|----------|--------*|
|------------------|----------|--------*|
|------------------|----------|--------*|
|----6---6---6---6-|----------|--------*|
|--9---9---9---9---|-8--------|-(8)----*|
|------------------|----------|--------*|


Duration Legend
---------------
W - whole; H - half; Q - quarter; E - 8th; S - 16th; T - 32nd; X - 64th; a - acciaccatura
+ - note tied to previous; . - note dotted; .. - note double dotted
Uncapitalized letters represent notes that are staccato (1/2 duration)
Irregular groupings are notated above the duration line
Duration letters will always appear directly above the note/fret number it represents the
duration for.  Duration letters with no fret number below them represent rests.  Multi-
bar rests are notated in the form Wxn, where n is the number of bars to rest for.  Low
melody durations appear below the staff

Tablature Legend
----------------
 h   - hammer-on
 p   - pull-off
 b   - bend
 pb  - pre-bend
 r   - bend release (if no number after the r, then release immediately)
 /\  - slide into or out of (from/to "nowhere")
 s   - legato slide
 S   - shift slide
  - natural harmonic
[n]  - artificial harmonic
n(n) - tapped harmonic
 ~   - vibrato
 tr  - trill
 T   - tap
 TP  - trem. picking
 PM  - palm muting
\n/  - tremolo bar dip; n = amount to dip
 \n  - tremolo bar down
 n/  - tremolo bar up
/n\  - tremolo bar inverted dip
 =   - hold bend; also acts as connecting device for hammers/pulls
 <>  - volume swell (louder/softer)
 x   - on rhythm slash represents muted slash
 o   - on rhythm slash represents single note slash

Misc Legend
-----------
 |  - bar
||  - double bar
||o - repeat start
o|| - repeat end
*|  - double bar (ending)
 :  - bar (freetime)
 $  - Segno
 &  - Coda
Tempo markers -  = BPM(8/16=s8/s16), where s8 = swing 8ths, s16 = swing 16ths
Добавлено: 17.10.2015
Другие материалы по этой песне:

Страница создана 19.07.2012
http://primanota.ru/who/cousin-kevin-chords.htm
Привет, Гость.
Предлагаем пройти революционный курс по гитаре.
Подарок от PrimaNota.Ru, забирай!