PrimaNota.ru - самый крупный в мире бесплатный архив песенных текстов, аккордов, табулатур и нот


Who - Bony Moronie - таба, видео

Регистрация Запомнить меня
Войти через:  Facebook Google Twitter Vk Yandex Mail.ru

Who - Bony Moronie - таба, видео

Печатать
Просмотров: 98
Уроки эстрадного вокала в Санкт-Петербурге
A5 x02xxx
A6 x04xxx
D5 xx02xx
D6 xx04xx
E 022100
D xx0232

[intro]

A
|--------|--------------|--------|-------------|
|--------|--------------|--------|-------------|
|--------|0-0---2-------|--------|2------------|
|----2-4-|---2h4-4------|----2-4-|-------------|
|0-4-----|--------0-3-4-|0-4-----|-------------|
|--------|--------------|--------|-------------|

|--------|---------------|--------------|-----------|
|--------|---------------|--------------|-----------|
|--------|0-0---------4^\|2------------2|-----------|
|----2---|----4-2---2----|-----2-4/5\4--|---2-3-2-2-|
|0-4---4-|--------4------|--0-4---------|0--0-3-4-0-|
|--------|---------------|--------------|-----------|

A [A riff]
I got a girl named Bony Moronie
----|--------|------------|--|
----|--------|------------|--|
----|--------|2-2-0-------|--|
----|----2h4-|------4-2-4-|--|
----|0-4-----|------------|0-|
12\-|--------|------------|--|

She's as pretty as a skinny macaroni
|--------|------------|--|
|--------|------------|--|
|--------|2-2-0-------|--|
|----2h4-|------4-2-4-|0-|
|0-4-----|------------|--|
|--------|------------|--|

D [D riff]
You should see her rock'n'roll with her blue jeans on
|------|-----------|--|
|------|1-1-0-----0|--|
|---2-4|-----4-3h4-|--|
|0-4---|-----------|--|
|------|-----------|0-|
|------|-----------|--|
A
She's not very fat just skin and bones
|--------|------------|
|--------|------------|
|--------|2-2-0-------|
|----2h4-|------4-2-4-|
|0-4-----|------------|
|--------|------------|

E D E D

I love her, she loves me, oh, how happy, now, we can be

A [A riff]

Makin' love underneath the apple tree

|A5 A6 A5 A6 |A5 A6 A5 
|[A riff]

My Bony Moronie, she's my heart's desire

She's a real upsetter, she's a real livewire

|D5 D6 D5 D6 |D5 D6 D5 
|[D riff]

We're gonna get married on a night in June

|A5 A6 A5 A6 |A5 A6 A5 
|[A riff]

And rock'n'roll by the light of the silvery moon

I love her, she loves me

Oh, how happy, now, we can be makin' love underneath the apple tree

[interlude]

Told her mama and her papa, too

Just exactly what we're gonna do

Well, we're gonna get married on a night in June

To rock'n'roll by the light of the silvery moon

I love her, she loves me

Oh, how happy, now, we can be makin' love underneath the apple tree

[interlude 2]
Добавлено: 14.06.2013
Другие материалы по этой песне:
  • Аккорды и текст

Страница создана 14.06.2013
http://primanota.ru/who/bony-moronie-chords.htm
Привет, Гость.
Предлагаем пройти революционный курс по гитаре.
Подарок от PrimaNota.Ru, забирай!