PrimaNota.ru - самый крупный в мире бесплатный архив песенных текстов, аккордов, табулатур и нот


Who - Baba Oreily - таба, видео

Регистрация Запомнить меня
Войти через:  Facebook Google Twitter Vk Yandex Mail.ru

Who - Baba Oreily - таба, видео

Печатать
Просмотров: 58
This is a great song which is the theme to CSI New York two great matches.
Capo 1st fret

e|--------------------------------------------------------------------------|
B|-------------------5---3-----------------------5---3----------------------|
G|----5--3-----------5---3---------5--3----------5---3----------5---3-------|
D|3---5--3-------3---5---3-----3---5--3------3---5---3------3---5---3-------|
A|3---3--0-------3-------------3---3--0------3--------------3---3---0-------|
E|0--------------0-------------0-------------0--------------0---------------|

e|--------------------------------------------------------------------------|
B|--------------------------------------------------------------------------|
G|-5----5----5--------------------------------------------------------------|
D|-5----5----5--------------------------------------------------------------|
A|-3----3----3--------------------------------------------------------------|
E|--------------------------------------------------------------------------|

e|--------------------------------------------------------------------------|
B|-------------------5---3-----------------------5---3----------------------|
G|----5--3-----------5---3---------5--3----------5---3----------------------|
D|3---5--3-------3---5---3-----3---5--3------3---5---3----------------------|
A|3---3--0-------3-------------3---3--0------3------------------------------|
E|0--------------0-------------0-------------0------------------------------|

e|--------------------------------------------------------------------------|
B|----------------------55---3--------------------------55---3--------------|
G|-----55--3------------55---3----------55--3-----------55---3--------------|
D|33---55--3-------33---55---3-----33---55--3------33---55---3--------------|
A|33---33--0-------33--------------33---33--0------33-----------------------|
E|00---------------00--------------00--------------00-----------------------|

Solo

e|-13-13--13---------------13-15-13-16-13-13--------------------------------|
B|----------13-13p15-15-15------------------15-13--15-13-15-13--------------|
G|--------------------------------------------------------------------------|
D|--------------------------------------------------------------------------|
A|--------------------------------------------------------------------------|
E|--------------------------------------------------------------------------|

e|-------------------------------------------------------------------------------|
B|-13-13-13-13-13-11-10~---13-13-13-13-13-11-10----------------------------------|
G|-----------------------------------------------5---3------5---3----5--3--------|
D|-----------------------------------------------5---3---3--5---3--3-5--3-3-5-3--|
A|-----------------------------------------------3---0---3--3---0--3-3--0-3-5-3--|
E|-------------------------------------------------------0---------0------0-3-0--|
These chords are being played during the final solo
e|-----------------------------------------------------------|
B|-----------------------------------------------------------|
G|-5--3-----8--5--3-----8--5--5--3---------------------------|
D|-5--3--3--8--5--3--3--8--5--5--3---------------------------|
A|-3--0--3--6--3--0--3--6--3--3--0---------------------------|
E|-------0-----------0---------------------------------------|

Final Solo

e|-12-13-15-12-13-15-121315-12-13-15-12-13-15-121315-12-13-15-12-13-15------|
B|--------------------------------------------------------------------------|
G|--------------------------------------------------------------------------|
D|--------------------------------------------------------------------------|
A|--------------------------------------------------------------------------|
E|--------------------------------------------------------------------------|

e|121315--11-13-15-11-13-15-111315-12-13-12-13-12-13-12-13-12--12-13-12-13--|
B|-----------------------------------------------------------13-------------|
G|--------------------------------------------------------------------------|
D|--------------------------------------------------------------------------|
A|--------------------------------------------------------------------------|
E|--------------------------------------------------------------------------|

e|-12-13-12-13-15-12-13-15-15-13-15-13-15-13-15-13-11-13-11-13-11-13-11-13--|
B|--------------------------------------------------------------------------|
G|--------------------------------------------------------------------------|
D|--------------------------------------------------------------------------|
A|--------------------------------------------------------------------------|
E|--------------------------------------------------------------------------|

e|--------------------------------------------------------------------------|
B|13-13-13-13-15-131313131313131313131313-11-10-8-10------------------------|
G|---------------------------------------------------10-8--7-8-7------------|
D|---------------------------------------------------------------8--7--8----|
A|--------------------------------------------------------------------------|
E|--------------------------------------------------------------------------|

Keep playing this until the end gradually getting faster
e|--------------------------------------------------------------------------|
B|--6-----------------------------------------------------------------------|
G|-55-----------------------------------------------------------------------|
D|-5------------------------------------------------------------------------|
A|--------------------------------------------------------------------------|
E|--------------------------------------------------------------------------|
Добавлено: 04.10.2013
Другие материалы по этой песне:
  • Аккорды и текст

Страница создана 04.10.2013
http://primanota.ru/who/baba-oreily-chords.htm
Привет, Гость.
Предлагаем пройти революционный курс по гитаре.
Подарок от PrimaNota.Ru, забирай!