PrimaNota.ru - самый крупный в мире бесплатный архив песенных текстов, аккордов, табулатур и нот


Whitney Ann Jenkins And Her Platonic Guy Friends - Naked Lady - таба, видео

Регистрация Запомнить меня
Войти через:  Facebook Google Twitter Vk Yandex Mail.ru

Whitney Ann Jenkins And Her Platonic Guy Friends - Naked Lady - таба, видео

Печатать
Просмотров: 74
----------------------------------------------------------------------------
       NAKED LADY - Whitney Ann Jenkins And Her Platonic Guy Friends
----------------------------------------------------------------------------
Tabbed by: @nicholaspaulpgh

From the debut album "Down Stage Left"

Tuning: E A D G B e

Chords used:
Am [X 0 2 2 1 0]
C  [X 3 2 0 1 0]
D  [X X 0 2 3 2]
G  [3 2 0 0 3 3]

0:00 Bass Intro
G|-----------------------------------------------------------------------------|
D|-----------------------------------------------------------------------------|
A|-------------------3---------------------------------------------------------|
E|---3--55-----3--55----0--3--55-----------------------------------------------|

0:01 Guitar II: Volume swell with chorus effect
e|-------5---------------------------------------------------------------------|
B|-------5---------------------------------------------------------------------|
G|-------5---------------------------------------------------------------------|
D|-------7---------------------------------------------------------------------|
A|-------0---------------------------------------------------------------------|
E|-----------------------------------------------------------------------------|

0:24 Full Band Enters, Guitar II Riff 1
e|5--5--7--5-----8--8---0-----5--5--7--5----8-------5-------------------------|
B|5--5--5--5----10-10---8-----5--5--5--5---10---8---5---------1---------------|
G|5--5--5--5-----9--9---9-----5--5--5--5----9---9---5--------2-2--------------|
D|7--7--7--7-----------10-----7--7--7--7-------10---7-------2-----------------|
A|--------------------------------------------------0------0------------------|
E|----------------------------------------------------------------------------|

1:29 Guitar II Riff 2
e|5--5--7--5-----8--8---7-----5--5--7--5----8---8---12-----------5------------|
B|5--5--5--5----10-10---8-----5--5--5--5---10--10---13-----8--3--5------------|
G|5--5--5--5-----9--9---9-----5--5--5--5----9---8---14-----9--4--5------------|
D|7--7--7--7------------------7--7--7--7------------------10--5--7------------|
A|---------------------------------------------------------------0------------|
E|----------------------------------------------------------------------------|


3:05 Outro "If Cupid comes...I think I'll let him stay"
               C               G                 Am
e|-------------0---------------3------------------0---------------------------|
B|-------------1---------------3------------------1---------------------------|
G|-------------0---------------0------------------2---------------------------|
D|-------------2---------------0------------------2---------------------------|
A|-------------3---------------2------------------0---------------------------|
E|-----------------------------3----------------------------------------------|

Guitar I (acoustic) plays the C G D G Am progression throughout the entire song

Her wavy golden hair across her back
It lay atop the chest she didn't lack
The rest of her was honestly exposed
Oh, the lady simply wasn't wearing clothes
 
The Painting of the Naked Lady there
I had to look and constantly I'd stare
The Lady in the Nude she caught my eye
And I'd sit for hours and hours wondering why
I'd sit for hours and hours wondering why
 
The Lady in the Painting there you see
is confronted by Cupid and his wings
A nervous smirk is plastered on her face
Her arms thrust out to claim her rightful space

The lady sits down to hesitate
Not wanting Cupid's bow to go to waste
Without a lover this lady is free
Of her garments and of vulnerability
 
The Painting of the Naked Lady there
I had to look and constantly I'd stare
The Lady in the Nude she caught my eye
And I'd sit for hours and hours wondering why
I'd sit for hours and hours wondering why
 
She resists the way her heart is leading her
To love is all she's wanted forever more
But she fears Cupid and what she cannot control
Oh the painting is a picture of my soul
The painting reflects my inner soul
So please, my love, don't let me push you away
If Cupid comes...I think I'll let him stay
Добавлено: 05.06.2016
Другие материалы по этой песне:
  • Аккорды и текст

Страница создана 05.06.2016
http://primanota.ru/whitney-ann-jenkins-and-her-platonic-guy-friends/naked-lady-chords.htm
Привет, Гость.
Предлагаем пройти революционный курс по гитаре.
Подарок от PrimaNota.Ru, забирай!