PrimaNota.ru - самый крупный в мире бесплатный архив песенных текстов, аккордов, табулатур и нот


Whither - Untitled - таба, видео

Регистрация Запомнить меня
Войти через:  Facebook Google Twitter Vk Yandex Mail.ru

Whither - Untitled - таба, видео

Печатать
Просмотров: 74
Уроки эстрадного вокала в Санкт-Петербурге
  Title: Untitled
  Author: Whither
  Tabed by Pepy


  Tablature explanation:

 p  = pull off
 h  = hammer on
N.H. = natural harmonic


em|--7-------0-3-5-------5---7-------0-3-5-------5----7-------0-2-3------------
 B|------0-----------0-----0-----0-----------0-----0------0-----------0--------
 G|----0---0-------0---0-------0---0-------0---0--------0---0-------0---0------
 D|----------------------------------------------------------------------------
 A|----------------------------------------------------------------------------
 E|--0-----------0-------0---0-----------0-------0----0-----------0------------


em|--3-2-0-------0-2-0-------0---|--7-------8p7-5-------5---7-------7h8-7-------
 B|----------0-----------0-----0-|------0-----------0-----0-----0-----------0---
 G|--------0---0-------0---0-----|----0---0-------0---0-------0---0-------0---0-
 D|------------------------------|----------------------------------------------
 A|------------------------------|----------------------------------------------
 E|--0---------------0-------0---|--0-----------0-------0---0-----------0-------


em|--7----7-------8p7-5-------5---7-------7h8-7-------7----|--------------------
 B|----0------0-----------0-----0-----0-----------0-----0--|--------------------
 G|---------0---0-------0---0-------0---0-------0---0------|--------------------
 D|--------------------------------------------------------|--------------------
 A|--------------------------------------------------------|--------------------
 E|--0----0-----------0-------0---0-----------0-------0----|--------------------


em|--12-------12---10-------10---8-------8---7-------7--------------------------
 B|-------0------0------0------0-----0-----0-----0-----0------------------------
 G|-----0---0---------0---0--------0---0-------0---0----------------------------
 D|-----------------------------------------------------------------------------
 A|-----------------------------------------------------------------------------
 E|--0---------0----0--------0---0-------0---0-------0--------------------------


em|--12-------12---10-------10---8-------8----7-------7-------------------------
 B|-------0------0------0------0-----0-----0------0-----0-----------------------
 G|-----0---0---------0---0--------0---0--------0---0---------------------------
 D|-----------------------------------------------------------------------------
 A|-----------------------------------------------------------------------------
 E|---0--------0----0--------0---0-------0----0-------0-------------------------


em|--8-------10-8-7-------7---5-------5-8-7-------7---3-------3-5-2-------2------
 B|------0------------0-----0-----0-----------0-----0-----0-----------0-----0----
 G|----0---0--------0---0-------0---0-------0---0-------0---0-------0---0--------
 D|------------------------------------------------------------------------------
 A|------------------------------------------------------------------------------
 E|--0--------0---0-------0---0-------0---0-------0---0-------0---0-------0------



em|--2-------2h3-0-------0----|--12-------12---10-------10---13-------13---------
 B|------0-----------0-----0--|-------0------0------0------0------0------0-------
 G|----0---0-------0---0------|-----0---0---------0---0---------0---0------------
 D|---------------------------|--------------------------------------------------
 A|---------------------------|--------------------------------------------------
 E|--0-------0---0-------0----|---0--------0----0--------0----0--------0---------


em|--12-------12----12-------12---10-------10---13-------13---12-------12--------
 B|-------0------0-------0------0------0------0------0------0------0------0------
 G|-----0---0----------0---0---------0---0---------0---0---------0---0-----------
 D|------------------------------------------------------------------------------
 A|------------------------------------------------------------------------------
 E|---0--------0-----0--------0----0--------0----0--------0----0--------0--------


em|--10-------10----8-------8---10-------10----7-------7----5-------5------------
 B|-------0------0------0-----0------0------0------0-----0------0-----0----------
 G|-----0---0---------0---0--------0---0---------0---0--------0---0--------------
 D|------------------------------------------------------------------------------
 A|------------------------------------------------------------------------------
 E|---0--------0----0-------0----0--------0----0-------0----0-------0------------

                                               N.H.                                             
em|--8-------8---8p7-3-------3h5p3--0----------12---||
 B|------0-----0---------0--------------0-----------||
 G|----0---0-----------0---0----------0---0---------||
 D|-------------------------------------------------||
 A|-------------------------------------------------||
 E|--0-------0---0---0-------0------0-----------0---||


   That's all, folks! Hope you enjoy it.
   
  If you want to find out something about Whither, feel free to write me.

    askpepy@yahoo.com
     
Добавлено: 27.07.2013
Другие материалы по этой песне:
  • Аккорды и текст

Страница создана 27.07.2013
http://primanota.ru/whither/untitled-chords.htm
Привет, Гость.
Предлагаем пройти революционный курс по гитаре.
Подарок от PrimaNota.Ru, забирай!