PrimaNota.ru - самый крупный в мире бесплатный архив песенных текстов, аккордов, табулатур и нот


Whither - Autumn Rain - таба, видео

Регистрация Запомнить меня
Войти через:  Facebook Google Twitter Vk Yandex Mail.ru

Whither - Autumn Rain - таба, видео

Печатать
Просмотров: 193
   Title:Autumn rain
   Author:WHITHER
   Tabbed by Pepy
  www.askpepy@yahoo.com

Tablature explanation:

 /  = slide
 p  = pull off
 h  = hammer on


em|--0-----0-----0-----0-------7------7-----7-----8-7-3-5-----5-----5-----
 B|----0-----0-----0-----0-------0------0-----0-----------0-----0-----0---
 G|------0-----0-----0-----0-------0------0-----0-----------0-----0-----0-
 D|-----------------------------------------------------------------------
 A|-----------------------------------------------------------------------
 E|--0-----0-----0-----0-------0------0-----0-----0-----0-----0-----0-----


em|--8-7-5-3-----3-----3-----8-7-3-5-----5-----5-----8-7-3-2-----5-3-2-0-----
 B|----------0-----0-----0-----------0-----0-----0-----------0-----------0---
 G|------------0-----0-----0-----------0-----0-----0-----------0-----------0-
 D|--------------------------------------------------------------------------
 A|--------------------------------------------------------------------------
 E|--0-----0-----0-----0-----0-----0-----0-----0-----0-----0-----0-----0-----


em|-0-----0-----0-----|-7-----7-----7-----12-10-8-7-----7-----7--------------
 B|---0-----0-----0---|---0-----0-----0-------------0-----0-----0------------
 G|-----0-----0-----0-|-----0-----0-----0-------------0-----0-----0----------
 D|-------------------|------------------------------------------------------
 A|-------------------|------------------------------------------------------
 E|-0-----0-----0-----|-0-----0-----0------0------0-----0-----0--------------


em|--12-10-8-5-----5-----5-----5-8-7-3-----3-----3-----5-3-2-0-----0---------
 B|------------0-----0-----0-----------0-----0-----0-----------0-----0-------
 G|--------------0-----0-----0-----------0-----0-----0-----------0-----0-----
 D|-------------------------------------------------------------------------
 A|--------------------------------------------------------------------------
 E|---0------0-----0-----0-----0-----0-----0-----0-----0-----0-----0---------


em|--0-----0-----3-----3-----2-----2-----0-----0-----0-----3-----3-----------
 B|----0-----0-----0-----0-----0-----0-----0-----0-----0-----0-----0---------
 G|------0-----0-----0-----0-----2-----2-----0-----0-----0-----0-----0-------
 D|-------------------------------------------------------------------------
 A|--------------------------2-----2-----------------------------------------
 E|--0-----0-----3-----3-----------------0-----0-----0-----3-----3-----------


em|--2-----2-----0-----0-----0-----|-7-----7-----7-----5-7-8-7-----7---------
 B|----0-----0-----0-----0-----0---|---0-----0-----0-----------0-----0-------
 G|------2-----2-----0-----0-----0-|-----0-----0-----0-----------0-----0-----
 D|--------------------------------|-----------------------------------------
 A|--2-----2-----------------------|-----------------------------------------
 E|--------------0-----0-----0-----|-0-----0-----0-----------0-----0---------


em|--7-----5-7-8-5-----5-----5-----8p7p5-3-5-----5-----5-----3-5/8-7----------
 B|----0-----------0-----0-----0-------------0-----0-----0-----------0--------
 G|------0-----------0-----0-----0-------------0-----0-----0-----------0------
 D|---------------------------------------------------------------------------
 A|---------------------------------------------------------------------------
 E|--0-----0-----0-----0-----0-------------0-----0-----0-----0-----0----------


em|--7-----7-----13-12-10-8-----8-----8-----8-10-12-7-----7-----7-------------
 B|----0-----0--------------0-----0-----0-------------0-----0-----0-----------
 G|------0-----0--------------0-----0-----0-------------0-----0-----0---------
 D|---------------------------------------------------------------------------
 A|---------------------------------------------------------------------------
 E|--0-----0------0-------0-----0-----0-----0-------0-----0-----0-------------


em|--7/8-10-5-----5-----5-----7-8-7-3-----3-----3-----7-5-3-0-----0-----0-----|
 B|-----------0-----0-----0-----------0-----0-----0-----------0-----0-----0---|
 G|-------------0-----0-----0-----------0-----0-----0-----------0-----0-----0-|
 D|---------------------------------------------------------------------------|
 A|---------------------------------------------------------------------------|
 E|--0------0-----0-----0-----0-----0-----0-----0-----0-----0-----0-----0-----|


em|--7-----7-----7-----12-10-8-7-----7-----7-----12-10-8-5-----5-----5---------
 B|----0-----0-----0-------------0-----0-----0-------------0-----0-----0-------
 G|------0-----0-----0-------------0-----0-----0-------------0-----0-----0-----
 D|----------------------------------------------------------------------------
 A|----------------------------------------------------------------------------
 E|--0-----0-----0------0------0-----0-----0------0------0-----0-----0---------


em|--5-8-7-3-----3-----3-----3-5-7-8-----8-----8-----2-3-5-7-----7-----7-------
 B|----------0-----0-----0-----------0-----0-----0-----------0-----0-----0-----
 G|------------0-----0-----0-----------0-----0-----0-----------0-----0-----0---
 D|----------------------------------------------------------------------------
 A|----------------------------------------------------------------------------
 E|--0-----0-----0-----0-----0-----0-----0-----0-----0-----0-----0-----0-------


em|--0-2-3-5-----5-----5-----2-5-3-0-----0-----0-----5-3-2-0-----0-----0--------
 B|----------0-----0-----0-----------0-----0-----0-----------0-----0-----0------
 G|------------0-----0-----0-----------0-----0-----0-----------0-----0-----0----
 D|-----------------------------------------------------------------------------
 A|-----------------------------------------------------------------------------
 E|--0-----0-----0-----0-----0-----0-----0-----0-----0-----0-----0-----0--------


em|--0-----3-----3-----2-----2-----0-----0-----0-----3-----3-----2-----2-----|
 B|----0-----0-----0-----0-----0-----0-----0-----0-----0-----0-----0-----0---|
 G|------0-----0-----0-----2-----2-----0-----0-----0-----0-----0-----2-----2-|
 D|--------------------------------------------------------------------------|
 A|--------------------2-----2-----------------------------------2-----2-----|
 E|--0-----3-----3-----------------0-----0-----0-----3-----3-----------------|


em|--7-----7-----7-----12-10-8-7-----7-----7-----12-10-7-8-----8-----8--------
 B|----0-----0-----0-------------0-----0-----0-------------0-----0-----0------
 G|------0-----0-----0-------------0-----0-----0-------------0-----0-----0----
 D|---------------------------------------------------------------------------
 A|---------------------------------------------------------------------------
 E|--0-----0-----0------0------0-----0-----0------0------0-----0-----0--------


em|--10-8-7-5-----5-----5-----10-8-5-7-----7-----7-----7-8-3-5-----5----------
 B|-----------0-----0-----0------------0-----0-----0-----------0-----0--------
 G|-------------0-----0-----0------------0-----0-----0-----------0-----0------
 D|---------------------------------------------------------------------------
 A|---------------------------------------------------------------------------
 E|---0-----0-----0-----0------0-----0-----0-----0-----0-----0-----0----------


em|--5-----7-5-2-3-----3-----3-----3-2-0-2-----3-2-0-2-----3-2-0-2------------
 B|----0-----------0-----0-----0-----------0-----------0-----------0----------
 G|------0-----------0-----0-----0-----------0-----------0-----------0--------
 D|---------------------------------------------------------------------------
 A|---------------------------------------------------------------------------
 E|--0-----0-----0-----0-----0-----0-----0-----0-----0-----0-----0------------

                    get slower

em|--5-3-2-0-----0-----0-----0------0-----------------------------------------
 B|----------0-----0-----0-----0----------------------------------------------
 G|------------0-----0-----0-----0--------------------------------------------
 D|---------------------------------------------------------------------------
 A|---------------------------------------------------------------------------
 E|--0-----0-----0-----0-----0------0-----------------------------------------



 That's it, I hope you'll enjoy playing this song.
 If you want to find out more about Whither, 
 send me an e-mail at www.askpepy@yahoo.com
     
Добавлено: 11.06.2013
Вам также может быть интересно:
Другие материалы по этой песне:
  • Аккорды и текст

Страница создана 11.06.2013
http://primanota.ru/whither/autumn-rain-chords.htm
Привет, Гость.
Предлагаем пройти революционный курс по гитаре.
Подарок от PrimaNota.Ru, забирай!