PrimaNota.ru - самый крупный в мире бесплатный архив песенных текстов, аккордов, табулатур и нот


Whither - Arrival - таба, видео

Регистрация Запомнить меня
Войти через:  Facebook Google Twitter Vk Yandex Mail.ru

Whither - Arrival - таба, видео

Печатать
Просмотров: 67
  Title: Arrival
  Author: Whither
  Tabbed by Pepy  askpepy@yahoo.com


  Tablature explanation:

 p  = pull off
 h  = hammer on




em|---5--7--8p7p5--3--3-------2--3--5p3p2--0--2------0--2--3p2p0-------------
 B|------------------------0----------------------0---------------3--1---0---
 G|----------------------0----------------------2----------------------0-----
 D|--------------------------------------------------------------------------
 A|-------------------------------------------2-------------------2--3-------
 E|---0---------------3-------0----------------------0-----------------------


em|------0--1--0-----------|---5--7--8p7p5--3--10--2--3--5p3p2--0--7---------
 B|---3-----------3--1--1--|-------------------------------------------------
 G|------0--2--2-----------|-------------------------------------------------
 D|------------------2--2--|-------------------------------------------------
 A|---------------2--------|-------------------------------------------------
 E|---3--------------------|---0----------------0------------------0---------


em|------0--1p0-----------0--2--3p2p0-----3p2p0--|--8---------7p5--5---------
 B|---3----------3--1--1---------------3---------|-----5---5-----------------
 G|----------------------------------------------|-------5-------------------
 D|------0-------------2-------------------------|---------------------------
 A|---2-------------3----------------------------|--0------------------------
 E|-----------------------0---------------0------|---------------------------


em|---5---------3p2--2--3---------2p0--2--2--5--3--2-----3p2p0--|------------
 B|------5---5-------------0---0----------------------3---------|------------
 G|--------5-----------------0----------------------------------|------------
 D|-------------------------------------------------------------|------------
 A|---0-----------------------------------2---------------------|------------
 E|---------------------3---------------------------------------|------------


em|--7--12--10--8--5-7-8--10--8--7--3-5-7--8--7--5--5p3-2--3--2----0h2h3p2p0-
 B|--------------------------------------------------------------3-----------
 G|--------------------------------------------------------------------------
 D|--------------------------------------------------------------------------
 A|--------------------------------------------------------------------------
 E|--0-----------------------------------------------------------------------


em|--12--10--8--5-7-8--10--8--7--3-5-7--8--7--5--5p3-2--3--2----0h2h3p2p0--|-
 B|--------------------------------------------------------------3---------|-
 G|------------------------------------------------------------------------|-
 D|------------------------------------------------------------------------|-
 A|------------------------------------------------------------------------|-
 E|------------------------------------------------------------------------|-



em|---5--7--8p7p5--3--3-------2--3--5p3p2--0--2------0--2--3p2p0--------------
 B|------------------------0----------------------0---------------3--1--------
 G|----------------------0----------------------2----------------------0------
 D|---------------------------------------------------------------------------
 A|-------------------------------------------2-------------------2--3--------
 E|---0---------------3-------0----------------------0------------------------



em|------0--1--0-----------||-------------------------------------------------
 B|---3-----------3--1--1--||-------------------------------------------------
 G|------0--2--2--------0--||-------------------------------------------------
 D|------------------2--2--||-------------------------------------------------
 A|---------------2-----3--||-------------------------------------------------
 E|---3--------------------||-------------------------------------------------
     
Добавлено: 22.11.2013
Другие материалы по этой песне:
  • Аккорды и текст

Страница создана 22.11.2013
http://primanota.ru/whither/arrival-chords.htm
Привет, Гость.
Предлагаем пройти революционный курс по гитаре.
Подарок от PrimaNota.Ru, забирай!