PrimaNota.ru - самый крупный в мире бесплатный архив песенных текстов, аккордов, табулатур и нот


Whitey Morgan and the 78s - Good Timin Man - таба, видео

Регистрация Запомнить меня
Войти через:  Facebook Google Twitter Vk Yandex Mail.ru

Whitey Morgan and the 78s - Good Timin Man - таба, видео

Печатать
Просмотров: 94
http://whiteymorgan.com

-------------------------------------------------------------------------------
        Good Timin' Man - Whitey Morgan and the 78's
-------------------------------------------------------------------------------
Tuning: Standard 


There aren't many tabs for this band on here, and I figured I try one. This is my first attempt at 
transcribing anything, so any suggestions are greatly appreciated. Thank you.

P.S. I have Am in the chorus, but I don't think it's what is played, but it's the only thing I could get
to sound even remotely close.


Intro:

    C                          F                        C
e|---------------------------------1-----------1------------------------------|
B|------1---1---------1---1----------1---1-------1---1------1---1-------------|
G|--------0---0---------0---0----x-----2-----2-----2----------0---0-----------|
D|----2-------------2----------3-----------3--------------2-------------------|
A|--3-------------3-------------------------------------3---------------------|
E|----------------------------------------------------------------------------|
    G           C
e|------3-------------------0-------------------------------------------------|
B|--------0---0-----1-------1-------------------------------------------------|
G|----------0-------------0-0-------------------------------------------------|
D|----0-----------2---0h2-----------------------------------------------------|
A|--------------3-------------------------------------------------------------|
E|--3-------------------------------------------------------------------------|

Verses:

Three nights in old Arizona 
    C                        F
e|-------------------------------1-----1---------1----------------------------|
B|------1---1-------1---1----------1-----1---------1--------------------------|
G|--------0---0-------0---0----2-----2---------------2------------------------|
D|----2-----------2----------3----------------3-------------------------------|
A|--3-----------3-------------------------------------------------------------|
E|----------------------------------------------------------------------------|

Gotta get me outta California
    C                        F
e|-------------------------------1------------1--------------------------------|
B|------1---1-------1---1----------1---1--------1---1--------------------------|
G|--------0---0-------0---0----2-----2------2-----2----------------------------|
D|----2-----------2----------3------------3------------------------------------|
A|--3-----------3--------------------------------------------------------------|
E|-----------------------------------------------------------------------------|

Yea she's        waitin' there for me
    C             G               C
e|--------------------3-------------------------------------------------------|
B|------1---1-----------0---0----------1---1----------------------------------|
G|--------0---0-----------0--------------0---0--------------------------------|
D|----2-------------0----------------2----------------------------------------|
A|--3------------------------------3------------------------------------------|
E|----------------3-----------------------------------------------------------|
   C                       G            C
e|------------------------------3--------------------0------------------------|
B|------1---1-------1---1---------0---0------1-------1------------------------|
G|--------0---0-------0---0---------0--------------0-0------------------------|
D|----2-----------2-----------0------------2---0h2----------------------------|
A|--3-----------3------------------------3------------------------------------|
E|--------------------------3-------------------------------------------------|

Feelin' wrong but I'll get right
    C                          F
e|-----------------------------1----1------------1------------------------------|
B|--1----1---1-------1---1-----1------1---1--------1---1------------------------|
G|--0------0---0-------0---0---2--------2------2-----2--------------------------|
D|--2--------------2-----------3--3----------3----------------------------------|
A|--3--3---------3--------------------------------------------------------------|
E|---------------------------------------------------------------------------|

Let me hit that stage tonight
    C                          F
e|-----------------------------1----1------------1------------------------------|
B|--1----1---1-------1---1-----1------1---1--------1---1------------------------|
G|--0------0---0-------0---0---2--------2------2-----2--------------------------|
D|--2--------------2-----------3--3----------3----------------------------------|
A|--3--3---------3--------------------------------------------------------------|
E|---------------------------------------------------------------------------|

Yea, they're     waiting' there for me
    C
e|-----------------3----3-----------------------------------------------------|
B|--1---1---1------0------0---0------1----1---1-------------------------------|
G|--0-----0---0----0--------0--------0------0---0-----------------------------|
D|--2--------------0--0--------------2----------------------------------------|
A|--3-3------------0-----------------3--3-------------------------------------|
E|-----------------3----------------------------------------------------------|

                 They're all waiting' there for me                           
    C                            G                 
e|-------------------------------3----3-----------------------------------------------|
B|--1----1-------1----1---1------0------0---0---1---1-------1-------1-------1---------|
G|--0------------0------0---0----0--------0-----0---------0---------------0-----------|
D|--2------------2---------------0--0----------=2-----0h2----------2--0h2------------- 
A|--3--3---------3--3------------0-------------=3-3--------------3--------------------|
E|-------------------------------3----------------------------------------------------|

Chorus:

         F           G              C
But it's hard to be that Good Timin' Man
          Am                             G
While I'm drownin' my misery, with this bottle in my hand
      F                         G               C               F     PAUSE
But I put on a smile and my old guitar and play "Cheatin Again" again
      C          G               C
And I try to be that Good Timin' Man


Pedal Steel solo: I'll either tab it for guitar or tab the background/chords when I get time

e|--------------------------------------------------------------------------|
B|--------------------------------------------------------------------|
G|---------------------------------------------------------------------|
D|-------------------------------------------------------------------------|
A|---------------------------------------------------------------------------|
E|------------------------------------------------------------------------------|


Right before the start of the next verse, this is played:

e|-----------------3-----3-----------------------0-----------------------------|
B|--1----1---1-----0-------0---0--1----1---------1-----------------------------|
G|--0------0---0---0---------0----0----------0---0-----------------------------|
D|--2--------------0---0----------2------0h2-----------------------------------|
A|--3--3-----------0--------------3--3-----------------------------------------|
E|-----------------3-----------------------------------------------------------|

Verses: 

   All these people they just don't see
     C                                    F
e|----------------------------------------1---1-----------------------------|
B|---1----1-------------------------------1-----1---------------------------|
G|---0------0-----------------------------2---------------------------------|
D|---2------------------------------------3-3-------------------------------|
A|---3--3-------------------------------------------------------------------|
E|--------------------------------------------------------------------------|

   What hurtin' that bottles been doing to me
    C                                           F
e|----------------------------------------------1----1--------------------|
B|--1----1--------------------------------------1------1------------------|
G|--0------0------------------------------------2-------------------------|
D|--2-------------------------------------------3--3----------------------|
A|--3--3------------------------------------------------------------------|
E|------------------------------------------------------------------------|

  Seems Every      night I walk the floor
    C               G             C
e|------------------3----3-----------------------------------------------------|
B|--1----1---1------0------0---0---1----1---1----------------------------------|
G|--0------0---0----0--------0-----0------0---0--------------------------------|
D|--2---------------0--0-----------2-------------------------------------------|
A|--3--3------------0--------------3--3----------------------------------------|
E|------------------3----------------------------------------------------------|

   C                          G             C
e|--------------------------------3--------------------------------------------|
B|------1---1--------1---1----------0---0-------1---1--------------------------|
G|--------0---0--------0---0----------0-----------0---0------------------------|
D|----2------------2------------0-------------2--------------------------------|
A|--3------------3--------------------------3----------------------------------|
E|----------------------------3------------------------------------------------|

      I was drunk in Oklahoma city   
   C                          F
e|--------------------------------1------------1-------------------------------|
B|-----1---1--------1---1-----------1---1--------1---1-------------------------|
G|-------0---0--------0---0-----2-----2------2-----2---------------------------|
D|---2------------2-----------3------------3-----------------------------------|
A|-3------------3--------------------------------------------------------------|
E|-----------------------------------------------------------------------------|

   Hell the whiskey was strong and the girls were pretty
      C                                            F
e|------------------------------------------------------1-------------1------------|
B|---------1---1--------1---1-----------------------------1---1---------1---1------|
G|-----------0---0--------0---0-----------------------2-----2-------2-----2--------|
D|-------2------------2-----------------------------3-------------3----------------|
A|-----3------------3--------------------------------------------------------------|
E|---------------------------------------------------------------------------------|

   Every night there's more and more
   C           G             C
e|------------------3--------------------------------------------------------|
B|-----1---1----------0---0------1---1---------1---1-------------------------|
G|-------0---0----------0----------0---0---------0---0-----------------------|
D|---2------------0------------2-------------2-------------------------------|
A|-3-------------------------3-------------3---------------------------------|
E|--------------3------------------------------------------------------------|

Seems every night there's more and more
  C             G            C
e|------------------3--------------------------------------------------------|
B|-----1---1----------0---0-------1---1-------1------------------------------|
G|-------0---0----------0-----------0---0-------------------------------------|
D|---2------------0--------------2-----------2--------------------------------
A|-3---------------------------3-----------3----------------------------------|  
E|--------------3------------------------------------------------------------|

Chorus:

         F           G              C
But it's hard to be that Good Timin' Man
          Am                             G
While I'm drownin' my misery, with this bottle in my hand
      F                         G               C               F     PAUSE
But I put on a smile and my old guitar and play "Cheatin Again" again
      C          G               C      Am      F
And I try to be that Good Timin' Man
      C         G                C
And I try to be that Good Timin' Man




End






************************************

| /   slide up
| \   slide down
| h   hammer-on
| p   pull-off
| ~   vibrato
| +   harmonic
| x   Mute note
| b   Bend
| pb  Pre-bend
| br  Bend release
| pbr Pre-bend release
| brb Bend release bend

************************************
Добавлено: 05.06.2016
Другие материалы по этой песне:
  • Аккорды и текст

Страница создана 04.06.2016
http://primanota.ru/whitey-morgan-and-78s/good-timin-man-chords.htm
Привет, Гость.
Предлагаем пройти революционный курс по гитаре.
Подарок от PrimaNota.Ru, забирай!