PrimaNota.ru - самый крупный в мире бесплатный архив песенных текстов, аккордов, табулатур и нот


Whitesnake - Guilty Of Love - аккорды и текст, таба, видео

Регистрация Запомнить меня
Войти через:  Facebook Google Twitter Vk Yandex Mail.ru

Whitesnake - Guilty Of Love - аккорды и текст, таба, видео

Печатать
Просмотров: 212
Уроки эстрадного вокала в Санкт-Петербурге
Авторы музыки: David Coverdale
Авторы текста: David Coverdale
Guilty Of Love
Whitesnake
		   INTRO:

E------------------------------------5------------
B----------5-----------5-----------5---7-5-7-5----
G---6--6h7---6-----6h7---6-----6h7-------------7--
D-------------------------------------------------      x2
A-------------------------------------------------
e-------------------------------------------------

VERSE:

E---------------------------------------------------------------
B---------------------------------------------------------------
G---------------------------------------------------------------
D---9~~------------7~~------------------------------------------
A---7~~------------5~~---------------7~~------------------9~~---
e------------------------------------5~~------------------7~~---
     I Believe My Love For You Is A Love That Will Last Forever......


CHORUS:

E--9-7-9----9-7-9---
B--9-7-9----9-7-9---
G--9-7-9----9-7-9---
D--9-7-9----9-7-9---
A-------------------
e-------------------


SOLO:

E-----8-8-8-8-8-8-8--10-10-10-10-10-10-10--12-12-12-12-12-12-12--14-14-16p14-16h14-------
B----------------------------------------------------------------------------------------
G----------------------------------------------------------------------------------------
D----------------------------------------------------------------------------------------
A----------------------------------------------------------------------------------------
e----------------------------------------------------------------------------------------


E-----16------15------14------13-12^----
B--------15~~----14~~----13~~-----------
G---------------------------------------
D---------------------------------------
A---------------------------------------
e---------------------------------------


Thats it!    WE WISH YOU WELL......          99c2stephensT@hinchbk.cambs.sch.uk

    Mail me with any 'snake tabs.     
Добавлено: 21.06.2013
Другие материалы по этой песне:

Страница создана 15.04.2012
http://primanota.ru/whitesnake/guilty-of-love-chords.htm
Привет, Гость.
Предлагаем пройти революционный курс по гитаре.
Подарок от PrimaNota.Ru, забирай!