PrimaNota.ru - самый крупный в мире бесплатный архив песенных текстов, аккордов, табулатур и нот


Whitechapel - End Of Flesh - текст песни, таба, видео

Регистрация Запомнить меня
Войти через:  Facebook Google Twitter Vk Yandex Mail.ru

Whitechapel - End Of Flesh - текст песни, таба, видео

Печатать
Просмотров: 236
Уроки эстрадного вокала в Санкт-Петербурге
Sooo this isnt the whoooole song,
but its a pretty big chunk of it.
by the way, id love corrections if theres
anything wrong, because there probably
is. im not toooo good at ear tabbing, but
this just sounds right on my guitar.
Rate and Comment at will.
                                 FIRST ENDING
b|-----------------------------|-----------------|
g|-----------------------------|-----------------|
d|-7/9--9/10-----12/10/9--9/7--|7-9/7/9/12-12----|
a|-x/x--x/x--X2--x/-x/-x--x/x--|x-x/x/x/-x-x-----|
e|-5/7--7-8------10/8/-7--7/5--|5-7/5/7/10-10----|
a|-----------------------------|-----------------|
  SECOND ENDING
b|-----------|
g|-----------|
d|-7--6--3---|
a|-x--x--x---|
e|-5--4--1---|
a|-----------|

b|---
g|---
d|---
a|--- (listen for pattern)
e|-0-
a|-0-

b|-------------------|
g|-------------------|
d|-------------------|
a|-------------------|
e|--00----00---------|
a|--00-13-00-13-11---|

b|---     b|---|
g|---     g|---|
d|---     d|---|
a|--- and a|---|   (same pattern just listen for it)
e|-0-     e|-0-|
a|-1-     a|-3-|

and thats about it i guess
i got some more of the song
but its pretty sketchy right
now, soo ill work on it

thanks!
Добавлено: 23.04.2012
Другие материалы по этой песне:

Страница создана 20.04.2012
http://primanota.ru/whitechapel/end-of-flesh-chords.htm
Привет, Гость.
Предлагаем пройти революционный курс по гитаре.
Подарок от PrimaNota.Ru, забирай!