PrimaNota.ru - самый крупный в мире бесплатный архив песенных текстов, аккордов, табулатур и нот


White Zombie - Thunder Kiss - аккорды и текст, таба, видео

Регистрация Запомнить меня
Войти через:  Facebook Google Twitter Vk Yandex Mail.ru

White Zombie - Thunder Kiss - аккорды и текст, таба, видео

Печатать
Просмотров: 89
Thunder Kiss
White Zombie
		   THUNDERKISS '65
===============

Verse:
  PM-------------------------|
("Well sweet a-little sister's...")
e|------------------------------------|
B|------------------------------------|
G|------------------------------------|
D|------------------------------------|
A|----------------------------3---2---|
E|0--0--00-00-0--00-00-0-0--0---2---1-|

Chorus:
("Five, yeah!")
e|----3------------3---------|
B|----3------------3---------|
G|----0------------0---------|
D|-2-----5-6-7--2------------|
A|-2-----3-4-5--2----xx7-xx5-|
E|-0------------0----xx5-xx3-|

Bridge1:
                 PM  PM                            PM--|
(Voiceover:"I don't try anything...")
e|-----------------------------|----------------|-----------|
B|------------------------­----|----------------|------------|
G|-----------------------------|----------------|------------|
D|---5---8-7-------------------|-------bar-dive-|------------|
A|-7-3-0-6-5--0-5---7---5--6-5-|-4----3----\-2--|---------2--|
E|-5------------3-3-5-5-3--4-3-|-2----1----\-0--|---3--5--0--|

Final Verse:
("Rollin' like a supersonic...")
e|--------------------|---------|
B|--------------------|---------|
G|--------------------|---------|
D|--------------------|---------|
A|-------5--------5-7-|-7-6-5---|
E|-0--0--3--00-00-3-5-|-5-4-3---|

Outro:
F#5 F (alternating)


BLACK SUNSHINE
==============

Verse:(The '' are whammy bar dives)
e|-9---\--|-12---\--|-9---\--|-3---\--|-9---\--|-12---\--|-9---\--|-12---\--|
B|-9---\--|-12---\--|-9---\--|-3---\--|-9---\--|-12---\--|-9---\--|-12---\--|
G|-9---\--|-12---\--|-9---\--|-3---\--|-9---\--|-12---\--|-9---\--|-12---\--|
D|--------|---------|--------|--------|--------|---------|--------|---------|
A|--------|---------|--------|--------|--------|---------|--------|---------|
E|--------|---------|--------|--------|--------|---------|--------|---------|

I can't remember the chorus riff off the top of my head.
I'll post it tomorrow.


--Mat




 Well I have a little more Tab on this song, I have posted the whole song
 so it will be easier.  If I ever get a chance I will try to finish it and
 put all the words into it.  Actually, am I the only one who cares.  If no

Well, here you go...this is the whole song for Thunder Kiss '65 minus the
solos which is just basically wacking off in the key of E This is definitely
the right sounding way to play this.  I tabbed this out awhile back and it's
still the only one I've done because I lost my copy of Tabedit and I can't
find it anywhere.

Pay attention to the distance between each of the notes, I tried to keep the
timing right between them.  And of course read the little things I wrote or
you might get lost.  Whenever a part I tabbed out was repeated I just made a
note to play that part again.  The only symbol I used in this was ~~, it just
means vibrato.  The only other real techniques this song uses is palm muting,
haven't figured out how to put that in tablature yet though...but you should
be able to tell what notes are palm muted.

One last note, that rhythm over the main guitar solo can be a bit tricky at
first....even though it doesn't look like it.  Just listen to the record to
get it right, it's really not that hard once you get it down.

-Banshee

      "THUNDER KISS '65" by White Zombie

    Intro riff  (Palm mute the open 6th string throughout)
E-|---------------------------------------------------------------------------|
B-|---------------------------------------------------------------------------|
G-|---------------------------------------------------------------------------|
D-|---------------------------------------------------------------------------|
A-|---------------------------------------------------------------------------|
E-|-0--0--0-0--0-0--0--0-0--0-0--0--0-0--0-0--0--0-0--0-0--0--0-0--0-0--0--0-0|

            1st time ending|     2nd time ending
E-|------------------------|--------------------------------------------------|
B-|------------------------|--------------------------------------------------|
G-|------------------------|--------------------------------------------------|
D-|------------------------|--------------------------------------------------|
A-|----------------2---1---|-----------8-----8--2---1-------------------------|
E-|-0-0--0--0-0--0---3---2-|-----0-0-0-6-0-0-6----3---2-----------------------|

    Main riff (the verses)    Played 4 times each verse
E-|---------------------------------------------------------------------------|
B-|---------------------------------------------------------------------------|
G-|---------------------------------------------------------------------------|
D-|---------------------------------------------------------------------------|
A-|----------------------------------------2---1------------------------------|
E-|-0--0--0-0--0-0--0--0-0--0-0--0--0-0--0---3---2----------------------------|

    The chorus rhythm part (played 4 times)
E-|---------------------------------------------------------------------------|
B-|-----8----------------------8----------------------------------------------|
G-|-----7----------------------7----------------------------------------------|
D-|-----6-------7--8--9--------6----------------------------------------------|
A-|-----7-------5--6--7--------7----------7------5----------------------------|
E-|-0-0-----0-0----------0--0-----0-0-0-0-5--0-0-3----------------------------|

    The rhythm part before the chorus
E-|---------------------------------------------------------------------------|
B-|---------------------------------------------------------------------------|
G-|---------------------------------------------------------------------------|
D-|-----5-------8--7----------------------------------------------------------|
A-|-7---3--0----6--5-----5-------7-----5----6--5------------------------------|
E-|-5-----------------3--3----5--5--3--3----4--3------------------------------|


E-|---------------------------------------------------------------------------|
B-|---------------------------------------------------------------------------|
G-|---------------------------------------------------------------------------|
D-|-----5-------8--7----------------------------------------------------------|
A-|-7---3--0----6--5-----5-------7-----5----6--5--4---------3--------2--------|
E-|-5-----------------3--3----5--5--3--3----4--3--2---------1--------0--------|

    Rhythm over the solo (played 3 times then play part 2 once)
E-|---------------------------------------------------------------------------|
B-|---------------------------------------------------------------------------|
G-|---------------------------------------------------------------------------|
D-|--------9----------------5---8---------10-----10--8------------------------|
A-|--------7-------5--6--7--5---8----------8------8--6--9--8------------------|
E-|-0---0------0-0-5--6--7--3---6---0---0-----0-0-------7--6------------------|
    (mute the 6th string throughout on these two parts)
    Solo rhythm part 2
E-|---------------------------------------------------------------------------|
B-|---------------------------------------------------------------------------|
G-|---------------------------------------------------------------------------|
D-|--------9----------------5---8---------10----------------------------------|
A-|--------7-------5--6--7--5---8----------8-----------7------5---------------|
E-|-0---0------0-0-5--6--7--3---6---0---0------0-0-0-0-5--0-0-3---------------|

    Verse right after solo (only time this rhythm is played)
E-|---------------------------|-----------------------------------------------|
B-|---------------------------|-----------------------------------------------|
G-|---------------------------|-----------------------------------------------|
D-|---------------------------|-----------------------------------------------|
A-|-------5--------------5--7-|-------------------5-----------5--4--3---------|
E-|-0--0--3--0--0---0-0--3--5-|-------------0--0--3---0-0-0-0-3--2--1---------|
	Play this^^part 3 times    then play this part ^^^ once (repeat twice)

    Then play the chorus rhythm once, then play this next part once

E-|---------------------------------------------------------------------------|
B-|---------------------------------------------------------------------------|
G-|---------------------------------------------------------------------------|
D-|---------------------------------------------------------------------------|
A-|-----5------4------3-------9------8-----7-------5------3-----5-------------|
E-|-0---3--0-0-2--0-0-1---0---7--6-6-6-5-5-5---0---3--0-0-1-0-0-3-------------|
    Then back to the main verse rhythm then the chorus again, then...
    THE ENDING
E-|---------------------------------------------------------------------------|
B-|---------------------------------------------------------------------------|
G-|---------------------11-11-11-13-11-10~~-11-11-11-13-11-10~~---------------|
D-|---------------------------------------------------------------------------|
A-|-4--4--4--4--3--------4--4--4--4--3-------4--4--4--4--3--------------------|
E-|-2--2--2--2--1--------2--2--2--2--1-------2--2--2--2--1--------------------|


E-|---------------------------------------------------------------------------|
B-|---------------------------------------------------------------------------|
G-|-11--11-10--10---11-10-11-10-11-10-11-10-11-10-11-10--11--10---11-----10~~-|
D-|---------------------------------------------------------------------------|
A-|-4----4---4--3-------------------------------------------------------------|
E-|-2----2---2--1----2--1--2--1--2--1--2--1--2--1--2--1---2---1----2------1~~-|     
Добавлено: 22.09.2013
Другие материалы по этой песне:
  • Аккорды и текст

Страница создана 10.03.2012
http://primanota.ru/white-zombie/thunder-kiss-chords.htm
Привет, Гость.
Предлагаем пройти революционный курс по гитаре.
Подарок от PrimaNota.Ru, забирай!