PrimaNota.ru - самый крупный в мире бесплатный архив песенных текстов, аккордов, табулатур и нот


White Zombie - Thrust - текст песни, бас-таба, видео

Регистрация Запомнить меня
Войти через:  Facebook Google Twitter Vk Yandex Mail.ru

White Zombie - Thrust - текст песни, бас-таба, видео

Печатать
Просмотров: 73
Авторы музыки: White Zombie
Авторы текста: Rob Zombie
Standard Tuning

Intro
----------------------------------------------------------------|
----------------------------------------------------------------|
--5-4-3----5-4-3---5-4-3------5-4-3-2~--------------------------|
--------0--------0-------0--------------------------------------|

Chorus
--------------------------------------------------------|
--------------------------------------------------------|
--7-7-7--5h7-----5-7---7-7-7-x-57---87------------------|
-------------5h7------------------0---------------------|

------------------------------------7-------------------|
--------------------------------------------------------|
--7-7-7--5h7-----5-7----7-7-7--5555---555---------------|
-------------5h7----------------------------------------|


Verse
-------------------------------------------------------------------------|
------------------------------------------------------------------8------|
-----7---------57-----7---------5-----7---------57-----------------------|
--00---00-0000-----00---00-0000----00---00-0000-----5-5-555-6-666---66---|

Chorus
Verse

Fill
----------------------------------------------------------------------|
----------------------------------------------------------------------|
--------------------------5---3---------------------------------------|
--202---202--12/14\--202----3---1-------------------------------------|

---------------------------------------------------------------|
---------------------------------------------------------------|
---------------------------------------------------------------|
22-22-22-21-1111-22-22-22-21-1--22-22-22-21-1111-22-22-22-21---|


Bridge
{-------------------------------------------------------------------|
{-----------------4------------4------------4-----------4-----------|
{-5---3-------------------------------------------------------------|
{---3---1-------2----2-0-1-2-2----2-0-1-2-2---2-0-1-2-2---2-0-1-2---|

------9-----9--------8------8------7-------------------------}
-------------------------------------------------------------}
--7-7---7-77--7--6-6---6-66---6--5---5-----------------------}
----------------------------------------55555-66666----------}

{---------------------------------------------------/9--------|
{-------------------------------------------------------------|
{---------------------------------7------5-7------7-----------|
{---22222--22222-22222-22222--0000--0000-----0000-------------|

-----------------------------------------------------------|
-----------------------------------------------------------|
---------------------------------7--5h7-----5-7--77777-----|
--22222-22222-22222-22222---0000--------5h7----------------|

----------------------------------------------------------------}
----------------------------------------------------------------}
-------------------------------7------5-7------7----------------}
--22222-22222-22222-22222--0000---0000-----0000-----0--0--0--0--}

Verse
Chorus

Outro
---------------------------------------------------------------|
---------------------------------------------------------------|
---------------------------------------------------------------|
-3--5-6--100-200-300-400-50-60-3--56-100-200-300-400-50-60-----|

------------------------------------------------------------------------|
------------------------------------------------------------------------|
------------------7---2---1---------------------------------------------|
-3--56---0--0-----------------1----0~~----------------------------------|
Добавлено: 04.01.2014
Другие материалы по этой песне:
  • Аккорды и текст

Страница создана 23.05.2012
http://primanota.ru/white-zombie/thrust-chords.htm
Привет, Гость.
Предлагаем пройти революционный курс по гитаре.
Подарок от PrimaNota.Ru, забирай!