PrimaNota.ru - самый крупный в мире бесплатный архив песенных текстов, аккордов, табулатур и нот


White Zombie - Starface - текст песни, таба, видео

Регистрация Запомнить меня
Войти через:  Facebook Google Twitter Vk Yandex Mail.ru

White Zombie - Starface - текст песни, таба, видео

Печатать
Просмотров: 76
Авторы музыки: White Zombie
Авторы текста: Rob Zombie
yet another good song ive seen tabbed either wrong or incompletly, this has everything 
the solo, the fills, and a pre-verse

STARFACE


INTRO
Drum beat first few bars


|------------------0-------------------------0-0--0-0--0-0--0-0--0--0-|
|------------------8-------------------------8-8--8-8--8-8--8-8--8--8-|
|------9-7---------7-------------9-7---------7-7--7-7--7-7--7-7--7--7-|
|-2----9-7----7----6----5-4-2----9-7----7----6-6--6-6--6-6--6-6--6--6-|
|-2----7-5----7----7----5-4-2----7-5----7----7-7--7-7--7-7--7-7--7--7-|
|-0-----------5----0----3-2-0-----------5----0-0--0-0--0-0--0-0--0--0-|


|---------------------------|----------------------------|
|---------------------------|------------------------2-0-|
|---------------------------|------------------------2-0-| 2x
|---------3p0---------------|---------3p0----0h3p0---2-0-|
|---------------2p0-----0---|-------------2--------2-----|
|-0-0-0-0-----------3p0---3-|-0-0-0-0--------------------|


PRE-VERSE                                                           wah on and off
|-----------------------------------------|-----------------------------------------------|
|-----------------------------------------|-----------------------------------------------|
|-----------------------------------------|-------------------0h2--14b15-12---------------|
|-------------------0h2-------------------|--------------------------------14b15-12-------|
|-----------------------------------------|-0-0-0-4-0-5-0-7-0-----------------------15-12-|
|-0-0-0-4-0-5-0-7-0-----0-0-0-4-0-5-7-3~~-|-----------------------------------------------|

VERSE 1
|---------------------------------------|
|---------------------------------------|
|---------------------------------------| 2x
|---4---4---4-x-x-x-x---4---4---4-2-3-4-|
|---4---4---4-x-x-x-x---4---4---4-2-3-4-|
|-0h2-0h2-0h2-x-x-x-x-0h2-0h2-0h2-0-1-2-|
Yeah September in the rain her sweat come a frozen on my skin
Eliminate the outerspace and come and get I'm swing'n down again


|-------------------|-------------------|
|-------------------|-------------------|
|-------------------|-------------------| 2x
|---4---4---4-7-6-5-|---4---4---4-2-3-4-|
|---4---4---4-7-6-5-|---4---4---4-2-3-4-|
|-0h2-0h2-0h2-5-4-3-|-0h2-0h2-0h2-0-1-2-|
Synchronize me, fall away
I believe that I, wicked on the way look alive now


CHORUS
|---------------------------|----------12b14--0-0-|
|-----------------------2-0-|-----------------8-8-|
|-----------------------2-0-|-----------------7-7-| 4x
|---------3p0---0h3p0---2-0-|-----------------6-6-|
|-------------2-------2-----|-----------------7-7-|
|-0-0-0-0-------------------|-0-0-0-0---------0-0-|
Yeah, stars explode my eyes
Well I've been, down a long time
Days, crawl away and die
Well forever, is a long time


PRE-VERSE                                                           wah on and off
|-----------------------------------------|-----------------------------------------------|
|-----------------------------------------|-----------------------------------------------|
|-----------------------------------------|-------------------0h2--14b15-12---------------|
|-------------------0h2-------------------|--------------------------------14b15-12-------|
|-----------------------------------------|-0-0-0-4-0-5-0-7-0-----------------------15-12-|
|-0-0-0-4-0-5-0-7-0-----0-0-0-4-0-5-7-3~~-|-----------------------------------------------|


VERSE 2
Yeah remember howling crazy like at the moonlight superfly
A penetrating powerman o baby I'm painted in the sky

Iron fister on the hour
Paralyzing demon flower


CHORUS
Yeah, stars explode my eyes
Well I've been, down a long time
Days, crawl away and die
Well forever, is a long time


SOLO RHYTHM
|-------------------|-------------------|
|-------------------|-------------------|
|-------------------|-------------------| 4x
|---4---4---4-7-6-5-|---4---4---4-2-3-4-|
|---4---4---4-7-6-5-|---4---4---4-2-3-4-|
|-0h2-0h2-0h2-5-4-3-|-0h2-0h2-0h2-0-1-2-|


SOLO
Wah on and off
|-
|-
|-
|-
|-
|-


PRE-VERSE
|-
|-
|-
|-
|-
|-


VERSE 3
|-------------------|
|-------------------|
|-------------------| 3x
|---4---4---4-2-3-4-|
|---4---4---4-2-3-4-|
|-0h2-0h2-0h2-0-1-2-|
Surround the pain the loves insane
Got a pseudo-systematic gain
Careening through the neon side


|--------------|
|--------------|
|--------------|
|---4---4---4--|
|---4---4---4--|
|-0h2-0h2-0h2--|
A horizontal mind (collide)


|-------------------|
|-------------------|
|-------------------| 4x
|---4---4---4-2-3-4-|
|---4---4---4-2-3-4-|
|-0h2-0h2-0h2-0-1-2-|
Harum scarum holiday
Double dealin on the ones who say
Collapse me with a power blast
Ground to zero rollin fast


|----------------|----------------|---------|
|----------------|----------------|---------|
|----------------|----------------|---------|
|---4---4---4----|---4---4---4----|-7---5---|
|---4---4---4----|---4---4---4----|-5-5-3-3-|
|-0h2-0h2-0h2----|-0h2-0h2-0h2----|---3---1-|
               Yeah              uh huh


VERSE 4
Ride the glide treasure slide
Got a wooden symbol soul inside
Freeze the heart a razor tear

Pack attack she doesnt care

If the pillow jacob sky
Snatch the pad I dont deny


|------------------|------------------|---------|
|------------------|------------------|---------|
|------------------|------------------|---------|
|---4---4---4-2----|---4---4---4-2----|-7---5---|
|---4---4---4-2----|---4---4---4-2----|-5-5-3-3-|
|-0h2-0h2-0h2-0----|-0h2-0h2-0h2-0----|---3---1-|
 Been a long time   Been a long time


FILLS
|-
|-
|-
|-
|-
|-


|------0---------0\\\\-|
|------8---------8\\\\-|
|------7---------7\\\\-|
|-2----6----2----6\\\\-|
|-2----7----2----7\\\\-|
|-0----0----0----0\\\\-|


|--------------------------|---------------------------|
|--------------------------|-----------------------2-0-|
|--------------------------|-----------------------2-0-| 2x
|---------3p0--------------|---------3p0---0h3p0---2-0-|
|--------------2p0-----0---|-------------2-------2-----|
|-0-0-0-0----------3p0---3-|-0-0-0-0-------------------|


PRE-VERSE                                                           wah on and off
|-----------------------------------------|-----------------------------------------------|
|-----------------------------------------|-----------------------------------------------|
|-----------------------------------------|-------------------0h2--14b15-12---------------|
|-------------------0h2-------------------|--------------------------------14b15-12-------|
|-----------------------------------------|-0-0-0-4-0-5-0-7-0-----------------------15-12-|
|-0-0-0-4-0-5-0-7-0-----0-0-0-4-0-5-7-3~~-|-----------------------------------------------|


VERSE 5
|---------------------------------------|
|---------------------------------------|
|---------------------------------------| 2x
|---4---4---4-x-x-x-x---4---4---4-2-3-4-|
|---4---4---4-x-x-x-x---4---4---4-2-3-4-|
|-0h2-0h2-0h2-x-x-x-x-0h2-0h2-0h2-0-1-2-|
Step into the wind and watch a red girl come alive
She screamin to the world "I'm diggin on the fact that you will not survive"


|-------------------|-------------------|
|-------------------|-------------------|
|-------------------|-------------------| 2x
|---4---4---4-7-6-5-|---4---4---4-2-3-4-|
|---4---4---4-7-6-5-|---4---4---4-2-3-4-|
|-0h2-0h2-0h2-5-4-3-|-0h2-0h2-0h2-0-1-2-|
Radiate me, walk away
You shook the devils, dig deep hand today


CHORUS
Yeah, stars explode my eyes
Well I've been, down a long time
Days, crawl away and die
Well forever, is a long time


OUTRO
|------------------0-------------------------0-0--0-0--0-0--0-0--0--0-|
|------------------8-------------------------8-8--8-8--8-8--8-8--8--8-|
|------9-7---------7-------------9-7---------7-7--7-7--7-7--7-7--7--7-|
|-2----9-7----7----6----5-4-2----9-7----7----6-6--6-6--6-6--6-6--6--6-|
|-2----7-5----7----7----5-4-2----7-5----7----7-7--7-7--7-7--7-7--7--7-|
|-0-----------5----0----3-2-0-----------5----0-0--0-0--0-0--0-0--0--0-|
A million miles an hour
A million miles an hour
A million miles an hour
Lets get inside
Добавлено: 06.10.2013
Другие материалы по этой песне:
  • Аккорды и текст

Страница создана 07.06.2012
http://primanota.ru/white-zombie/starface-chords.htm
Привет, Гость.
Предлагаем пройти революционный курс по гитаре.
Подарок от PrimaNota.Ru, забирай!