PrimaNota.ru - самый крупный в мире бесплатный архив песенных текстов, аккордов, табулатур и нот


White Zombie - La Sexorcisto - таба, бас-таба, видео

Регистрация Запомнить меня
Войти через:  Facebook Google Twitter Vk Yandex Mail.ru

White Zombie - La Sexorcisto - таба, бас-таба, видео

Печатать
Просмотров: 60
Band: White Zombie
Album: La Sexorcisto: Devil Music Vol. 1
Released: 1992
Tabbed by: Rodrigo "R0D Z0MBIE" Espichan
E-mail: rodzombie_89@hotmail.com
        rod_zakkwylde@hotmail.com
_______________________________________________________________________
1) Welcome To Planet Motherfucker/Psychoholic Slag

[INTRO]	Sfx (60's movies style)
	Play this E5 (x799xxx) chord approximately 64 times
	or so with a phasing device (a flanger will work good here)
	then verse riff

[VERSE]
e-||-----------------------------------------||
b-||-----------------------------------------||
g-||--1------------1-------------------------||
D-||--2------------2-------------------------||
A-||--2------------2---....P.M..........-----||
E-||--0--0-0-3-0-0-0---3-0-0-3-0-0-0---------||

Woven in the surface a premonition of land erupting
a sparkling occasion of a city crashdown! over head
revolv'n in a whirlpool a drag-o-rama walk'n on the sidewalk
so let me see ya howl'n through the keyhole "god damn, swept away"

[CHORUS]
||------------------------------12--b--------------------------------------||
||--------5--b----------8--8\---15^(1)~~~~~~--------5--b--------8--8-------||
||-9--9---7^(1)~~~~~~---7--7\----------------9--9---7^(1)~~~~~~-7--7-------||
||-9--9-----------------6--6\----------------9--9---------------6--6-------||
||-7--7-----------------7--7\----------------7--7---------------7--7-------||
||-0--0--------------------------------------0--0--------------------------||

she      shouted     she loved it          get in 	away 	yeah!

[VERSE]
I concentract the midnight without the benefit of ceremony
whoever said, "the one who strips your soul is the one that god away"
a weather-beaten angel descending to embrace the cemetery
got love - so mystifying "god damn, swept away"

[CHORUS]
she shouted 	- 	she loved it 	- 	get in       away yeah!
she shouted 	- 	she loved it 	- 	get in       away - yeah!

[INTERLUDE]
-----------------------------------------------------------------------------|
-----------------------------------------------------------------------------|
-----------------4-x-----------5---4-x------------------4-x------------------|
----------2-2-2--4-x--------7--5---4-x------------2-2-2-4-x------------------|
-4-4-7----2-2-2--2-x--4-4-x-7--3---2-x---4-4-7----2-2-2-2-x--4-4-x-x-x-x-5-4-|
-2-2-5--0-0-0-0-------2-2-x-5------------2-2-5--0-0-0-0------2-2-x-x-x-x-3-2-|

repeat this fig over and over | End on the 3rd time by:
D|----------------------------|----p.m--------------|
A|...........p.m............--|----8-----7---5------|
E|-2-2-2-2-2-2--2-2--2-2-2-2--|-0--6--0--5---3------|

[RE-INTRO]
The next part to be played is a "re-intro" to the song and is just
a flanged F# note on the low E string played similar to the pattern above

[VERSE]
Voodoo beat on the mind the digs too deep to find
something has got to give, man (psych-out)
Racketeer or star you are just what you are,
don't play the misty, baby! (get you)
Into a river sky electro nation cry
"i need another,	now"

[VERSE]
Drift beyond the sleeping the moon is shift'n shadows on her 	figure (yeah)
swamptime locomotion "i can't take it anymore!	"
sunlight throught the shutters illuminationg moment to the moment
buzz a halo over "god damn, swept away	"

[CHORUS]
she shouted	- 	she love it 	- 	get in 		away yeah
she shouted 	- 	she love it 	- 	get in 		away

[BREAK]
The song breaks down to the second half called "Psychoholic Slag"
Psychedelic Fills then:
   .........P.M.............
E|--0-0----0-0----0-0----0-0---|

[CHORUS_B]
||-----------------------------------------------------------------------||
||-----------------------------------------------------------------------||
||------------------------3/4--3-2-------------------------4/5--4-3------||
||-----3-----2------------3/4--3-2-------3----2------------4/5--4-3------||
||-.-.-1---.-0--.--5\4-.--1/2--1-0---.-.-1--.-0--.--5\4-.--2/3--2-1------||
||-0-0-----0----0--3\2-0-------------0-0----0----0--3\2-0----------------||

planet 	pretty	kill 					(get up and kill)
motherfucker hang me on the thrills		[*]
psychoholic slag
tomorrow is another dray (yeah)			[*]

 [*]  Ending Notes
D|------------------------|	 These notes are played just after
A|-------2-------A.H.-----|	  the "drills" / "dray" words
E|-0-2-3---3-2-0--1~~~~~--|

Continue the remaining portions of the song with the above parts.

[VERSE] mutted E
Picnic in the homeland  like a jesus super-star yeah!
kiss me deadly, baby (baby) I know who you are (come on)

[CHORUS_B]
planet pretty kill					(get up and kill)
motherfucker hang me on the thrills yeah!	[*]

[VERSE] mutted E
no small heaven (haven) i got the left hand of the keeper 	(bang!)
meet me in st. louis "god" a oneway ticket's cheaper yeah!
time-travel i'm walk'n (walk'n) i got a white line zombie fever (fever)
yeah! the bomb the hero (hero) yeah get down!!

[OUTRO]lead gtr w/ samples

______________________________________________________________________________
2) Knuckle Duster (Radio 1-A)
______________________________________________________________________________
3) Thunder Kiss 65

    Intro riff  (Palm mute the open 6th string throughout)
E-|---------------------------------------------------------------------------|
B-|---------------------------------------------------------------------------|
G-|---------------------------------------------------------------------------|
D-|---------------------------------------------------------------------------|
A-|---------------------------------------------------------------------------|
E-|-0--0--0-0--0-0--0--0-0--0-0--0--0-0--0-0--0--0-0--0-0--0--0-0--0-0--0--0-0|

            1st time ending|     2nd time ending
E-|------------------------|--------------------------------------------------|
B-|------------------------|--------------------------------------------------|
G-|------------------------|--------------------------------------------------|
D-|------------------------|--------------------------------------------------|
A-|----------------2---1---|-----------8-----8--2---1-------------------------|
E-|-0-0--0--0-0--0---3---2-|-----0-0-0-6-0-0-6----3---2-----------------------|

    Main riff (the verses)    Played 4 times each verse
E-|---------------------------------------------------------------------------|
B-|---------------------------------------------------------------------------|
G-|---------------------------------------------------------------------------|
D-|---------------------------------------------------------------------------|
A-|----------------------------------------2---1------------------------------|
E-|-0--0--0-0--0-0--0--0-0--0-0--0--0-0--0---3---2----------------------------|

    The chorus rhythm part (played 4 times)
E-|---------------------------------------------------------------------------|
B-|-----8----------------------8----------------------------------------------|
G-|-----7----------------------7----------------------------------------------|
D-|-----6-------7--8--9--------6----------------------------------------------|
A-|-----7-------5--6--7--------7----------7------5----------------------------|
E-|-0-0-----0-0----------0--0-----0-0-0-0-5--0-0-3----------------------------|

    The rhythm part before the chorus
E-|---------------------------------------------------------------------------|
B-|---------------------------------------------------------------------------|
G-|---------------------------------------------------------------------------|
D-|-----5-------8--7----------------------------------------------------------|
A-|-7---3--0----6--5-----5-------7-----5----6--5------------------------------|
E-|-5-----------------3--3----5--5--3--3----4--3------------------------------|

E-|---------------------------------------------------------------------------|
B-|---------------------------------------------------------------------------|
G-|---------------------------------------------------------------------------|
D-|-----5-------8--7----------------------------------------------------------|
A-|-7---3--0----6--5-----5-------7-----5----6--5--4---------3--------2--------|
E-|-5-----------------3--3----5--5--3--3----4--3--2---------1--------0--------|

    Rhythm over the solo (played 3 times then play part 2 once)
E-|---------------------------------------------------------------------------|
B-|---------------------------------------------------------------------------|
G-|---------------------------------------------------------------------------|
D-|--------9----------------5---8---------10-----10--8------------------------|
A-|--------7-------5--6--7--5---8----------8------8--6--9--8------------------|
E-|-0---0------0-0-5--6--7--3---6---0---0-----0-0-------7--6------------------|
    (mute the 6th string throughout on these two parts)
    Solo rhythm part 2
E-|---------------------------------------------------------------------------|
B-|---------------------------------------------------------------------------|
G-|---------------------------------------------------------------------------|
D-|--------9----------------5---8---------10----------------------------------|
A-|--------7-------5--6--7--5---8----------8-----------7------5---------------|
E-|-0---0------0-0-5--6--7--3---6---0---0------0-0-0-0-5--0-0-3---------------|

    Verse right after solo (only time this rhythm is played)
E-|---------------------------|-----------------------------------------------|
B-|---------------------------|-----------------------------------------------|
G-|---------------------------|-----------------------------------------------|
D-|---------------------------|-----------------------------------------------|
A-|-------5--------------5--7-|-------------------5-----------5--4--3---------|
E-|-0--0--3--0--0---0-0--3--5-|-------------0--0--3---0-0-0-0-3--2--1---------|
	Play this^^part 3 times    then play this part ^^^ once (repeat twice)

    Then play the chorus rhythm once, then play this next part once

E-|---------------------------------------------------------------------------|
B-|---------------------------------------------------------------------------|
G-|---------------------------------------------------------------------------|
D-|---------------------------------------------------------------------------|
A-|-----5------4------3-------9------8-----7-------5------3-----5-------------|
E-|-0---3--0-0-2--0-0-1---0---7--6-6-6-5-5-5---0---3--0-0-1-0-0-3-------------|
    Then back to the main verse rhythm then the chorus again, then...
    THE ENDING
E-|---------------------------------------------------------------------------|
B-|---------------------------------------------------------------------------|
G-|---------------------11-11-11-13-11-10~~-11-11-11-13-11-10~~---------------|
D-|---------------------------------------------------------------------------|
A-|-4--4--4--4--3--------4--4--4--4--3-------4--4--4--4--3--------------------|
E-|-2--2--2--2--1--------2--2--2--2--1-------2--2--2--2--1--------------------|

E-|---------------------------------------------------------------------------|
B-|---------------------------------------------------------------------------|
G-|-11--11-10--10---11-10-11-10-11-10-11-10-11-10-11-10--11--10---11-----10~~-|
D-|---------------------------------------------------------------------------|
A-|-4----4---4--3-------------------------------------------------------------|
E-|-2----2---2--1----2--1--2--1--2--1--2--1--2--1--2--1---2---1----2------1~~-|
_______________________________________________________________________________
4) Black Sunshine
----------------------------------------|-------------------------------------|
----------------------------------------|-------------------------------------|
-10/12*13--10/13*14--10/12*13--10/13*14-|-------------------------------------|
-10/12*13--10/13*14--10/12*13--10/13*14-|-------------------------------------|
-8//10*11--8//11*12--8//10*11--8//11*12-|--7-8--8-9--7-8-9-10-9---------------|
-8//10*11--8//11*12--8//10*11--8//11*12-|-8----8----8-------------------------|
 (bass intro then guitar enters)                  (4 times)

----------------------------------------|-------------------------------------|
----------------------------------------|-------------------------------------|
-10/12*13--10/13*14--10/12*13--10/13*14-|-------------------------------------|
-10/12*13--10/13*14--10/12*13--10/13*14-|-------------------------------------|
-8//10*11--8//11*12--8//10*11--8//11*12-|--7-8--8-9--7-8-9-10-9---------------|
-8//10*11--8//11*12--8//10*11--8//11*12-|-8----8----8-------------------------|
( V E R S E )                        Sweet'n

----------------------------------------|-------------------------------------|
----------------------------------------|-------------------------------------|
-10/12*13--10/13*14--10/12*13--10/13*14-|-------------------------------------|
-10/12*13--10/13*14--10/12*13--10/13*14-|-------------------------------------|
-8//10*11--8//11*12--8//10*11--8//11*12-|--7-8--8-9--7-8-9-10-9----7-8--8-9---|
-8//10*11--8//11*12--8//10*11--8//11*12-|-8----8----8-------------8----8------|
( V E R S E )                        Sweet'n

-------------------------------------|--------------------------|-------------|
-------------------------------------|--------------------------|-------------|
-------------------------------------|-6-x-8-x-6-x-8-5----------|-------------|
----------------------------7-8-9-10-|-6-x-8-x-6-x-8-5----------|-------------|
----------------------------7-8-9-10-|-4-x-6-x-4-x-6-3----------|-------------|
-8-7-5--8-7-5--8-7-5--8-7-5-5-6-7-8--|--------------------------|-------------|
                 ( 4 t i m e s )                       (8 times)

-----------------------------------------------9*11-9*11-9*11-|---------------|
--------------------------------------------------------------|---------------|
--------------------------------------------------------------|---------------|
--------------------------------------------------------------|---------------|
--------------------------------------------------------------|---------------|
-0-0-0-0-0-0-0-0-0-0-0-0^0^0^0-1-0-0-0-0-0-0-0----------------|---------------|

-----------------|------------------------------------------------------------|
-----------------|------------------------------------------------------------|
-6-x-8-x-6-x-8-5-|------------------------------------------------------------|
-6-x-8-x-6-x-8-5-|------------------------------------------------------------|
-4-x-6-x-4-x-6-3-|------------------------------------------------------------|
-----------------|------------------------------------------------------------|
            (4 times)

-----------------------------------------------9*11-9*11-9*11--|--------------|
---------------------------------------------------------------|--------------|
---------------------------------------------------------------|--------------|
---------------------------------------------------------------|--------------|
---------------------------------------------------------------|--------------|
-0-0-0-0-0-0-0-0-0-0-0-0^0^0^0-1-0-0-0-0-0-0-0-----------------|--------------|

--------------------------||-----------------------------------|--------------|
--------------------------||-----------------------------------|--------------|
--------------------------||-----------------------------------|--------------|
--------------------------||-----------------------------------|--------------|
--8-9--9-10--8-9-10-11-10-||-2-3-4-2-4-5-2-4-5-6-5-------------|--------------|
-9----9-----9-------------||-----------------------------------|--------------|
            (4 times)                   Sweet'n

-----------------------|------------------------------------------------------|
-----------------------|------------------------------------------------------|
-----------------------|-10-12\10-------12\10---------------------------------|
-----------------------|-10-12\10-11/10-12\10---------------------------------|
--7-8--8-9--7-8-9-10-8-|-8--10\8--9//8--10\8----------------------------------|
-8----8----8-----------|------------------------------------------------------|
            (4 times)

------------------------------------------------------------------------------|
------------------------------------------------------------------------------|
------------------------------------------------------------------------------|
------------------------------------------------------------------------------|
-8-8-8-8-8-8-8-8-8-8-8-8-9-10-11-10--8-8-8-8-8-8-9-11-10-11-12-11-9-13-12-11--|
-8-8-8-8-8-8-8-8-8-8-8-8-------------8-8-8-8-8-8------------------------------|
                                     ( 2 t i m e s )

------------------------------------------------------------------------------|
------------------------------------------------------------------------------|
------------------------------------------------------------------------------|
-----------------------------------------------------13-12-11-11-10-9-10-9-8--|
-8-8-8-8-8-8-8-8-8-8-8-8-9-10-11-10--8-8-8-8-8-8-8-8--------------------------|
-8-8-8-8-8-8-8-8-8-8-8-8-------------8-8-8-8-8-8-8-8--------------------------|

-------------------------------------------------------------------------------|
-------------------------------------------------------------------------------|
-----------------------------------------------------10------------------------|
-----------------------------------------------------10------------------------|
-8-8-8-8-8-8-8-8-8-8-8-8-9-10-11-10--8-8-8-8-8-8-8-8-8----9-11-10-11-12-11-9---|
-8-8-8-8-8-8-8-8-8-8-8-8-------------8-8-8-8-8-8-8-8-8-------------------------|

------------------------------------------------------------------------------|
------------------------------------------------------------------------------|
------------------------------------------------------------------------------|
------------------------------------------------------------------------------|
-13-12-11---------------------------------------------------------------------|
------------------------------------------------------------------------------|
_______________________________________________________________________________
5) Soul Crusher

[INTRO]  : (Fill_4x;C#)x2 ; (A;A#)x4 ; C# ; (Fill_4x;C#)x2 ; (A;A#)x4

e-||---------------{ Fill }---------------------[x4]|--{ C# }---[x2]|
b-||-----------------------------------------------||--------------||
g-||*--7--8-----8--5-----------5--7----------------||-6--6--6--6--*||
D-||*:-----------------7--0-----------5--6--------:||-6--6--6--6--*||
A-||----------------------------------------8--5---||-4--4--4--4---||
E-||-----------------------------------------------||--------------||

-||--------{ A }-------------|----------{ A# }-------------|x4]| 1st time:
-||--------------------------|-----------------------------|  Play the C#
-||--2--------2--------2-----|-3--------3--------3---------|  Riff and
-||:-2--------2--------2-----|-3--------3--------3-----:---|  Repeat from
-||--0--0--0--0--0--0--0--0--|-1--1--1--1--1--1--1--1------|  Beginning
-||--------------------------|-----------------------------| 2d: 1st verse

[VERSE_1] : C D
||---------------------------------||
||---------------------------------||
||*-----5-7-----7--7--7--7--7--7--*||
||*-----5-7-----7--7--7--7--7--7--*||
||------3/5-----5--5--5--5--5--5---||
||---------------------------------||

[VERSE_2]
||------------------------r-----------------------|
||------------------------e-----------------------|
||*-----------------------s-----------------------|
||*--------------------9--t--9-----------------9--|
||---------------------7-----7-----------------7--|
||---0--0--0--0--------0-----0-----0--0--0-----0--|

            open fret is a grace note
-----------------------------------------------------||---------||
-----------------------------------------------------||---------||
----------------------------------------------------*||---------||
-----------------9----------------------------------*||--4------||
-----------------7-----10--7-------------------------||--4~~~---||
--0--0--0--0-----0------------10--7\6/7--10------7---||--2------||

          [BRIDGE]
||------------------------------|-------------------------------|
||*--------------------------5--|-------------------------------|
||*--------------------------5--|---------------------------2---|
||---------------------------5--|---------------------------2---|
||---0-2---0-2---0-2---0-2---3--|---0-2---0-2---0-2---0-2---0---|

--------------------------------|------------------------------------||
--------------------------------|------------------------------------||
--------------------------------|-----------------------------3--2--*||
--------------------------5--5--|-----------------------------3--2--*||
--------------------------5--5--|-----------------------------1--0---||
--0-2---0-2---0-2---0-2---3--3--|---0-2---0-2---0-2---0-2------------||

[VERSE_3] = V2
[VERSE_4] spoken
[VERSE_5] = V2
[VERSE_6]
[SOLO_1]
[VERSE_7]
[SOLO_2]
[OUTRO] same as intro BUT one string lower
___________________________________________________________________________
6) Cosmic Monsters Inc.

Intro:
E-------------------------------|------------------------------------------|---|
B-------------------------------|------------------------------------------|---|
G-------------------------------|------9-8------------------9-8------------|---|
D-x-x-x-x-x-x-x-x-x-x-x-x-x-x-x-|-7-6--7-6--9-8-7-6-5--7-6--7-6--9-8-7-6-5-|---|
A-x-x-x-x-x-x-x-x-x-x-x-x-x-x-x-|-5-4-------7-6-5-4-3--5-4-------7-6-5-4-3-|---|
E-0-0-0-0-0-0-0-0-0-0-0-0-0-0-0-|------------------------------------------|---|

------------------------------------------|-------------------------------|---|
------------------------------------------|-------------------------------|---|
------9-8------------------9-8------------|-------------------------------|---|
-7-6--7-6--9-8-7-6-5--7-6--7-6--9-8-7-6-5-|-x-x-x-x-x-x-x-x-x-x-x-x-x-x-x-|---|
-5-4-------7-6-5-4-3--5-4-------7-6-5-4-3-|-x-x-x-x-x-x-x-x-x-x-x-x-x-x-x-|---|
------------------------------------------|-0-0-0-0-0-0-0-0-0-0-0-0-0-0-0-|---|

------------------------------------------------------------------------------|
------------------------------------------------------------------------------|
------9-8------------------9-8------------------9-8------------------9-8------|
-7-6--7-6--9-8-7-6-5--7-6--7-6--9-8-7-6-5--7-6--7-6--9-8-7-6-5--7-6--7-6--9---|
-5-4-------7-6-5-4-3--5-4-------7-6-5-4-3--5-4-------7-6-5-4-3--5-4-------7---|
------------------------------------------------------------------------------|

---------8/11-9-------------------|-------------------------------------------|
----------------11-10-------------|-------------------------------------------|
----------------------13-11-------|-----4-x-3-x-4-x-3------------4-x-3-x-4-x--|
-8-7-6-5--------------------12-11-|-----4-x-3-x-4-x-3-3-4-5------4-x-3-x-4-x--|
-6-5-4-3--------------------------|-0-0-2-x-1-x-2-x-1-1-2-3--0-0-2-x-1-x-2-x--|
----------------------------------|-------------------------------------------|

---------------------------------------------------------------------|--------|
---------------------------------------------------------------------|--------|
-3------------4-x-3-x-4-x-3------------4-x-3-x-4-x-3-x-x-x-x-x-x-x-x-|--------|
-3-3-4-5------4-x-3-x-4-x-3-3-4-5------4-x-3-x-4-x-3-x-x-x-x-x-x-x-x-|--------|
-1-1-2-3--0-0-2-x-1-x-2-x-1-1-2-3--0-0-2-x-1-x-2-x-1-0-0-0-0-0-0-0-0-|--------|
---------------------------------------------------------------------|--------|
									Well
----------------------------|
----------------------------|
----------------------------|
-7\6/7/8--7-7-6-8-6-9-------|
-7\6/7/8--7-7-6-8-6-9-------|
-5\4/5/6--5-5-4-6-4-7-------|

[verse]

------------------------------|--------------------------------------|
------------------------------|--------------------------------------|
------------------------------|--------------------------------------|
------------------------------|--------------------------------------|
-----6-6---7---7---6-7--------|-----4-4---5---5---4-5----(two times)-|
-7-6-----6---6---7------------|-5-4-----4---4---5--------------------|

------------------------------------------------|
------------------------------------------------|
------------------------------------------------|
------------------------------------------------|
-----6-6---7---7---6-7-------6-6---7---7---6-7--|
-7-6-----6---6---7-------7-6-----6---6---7------|

------------------------------|
------------------------------|
------------------------------|
-7\6/7/8--7-7-6-8-6-9---------|
-7\6/7/8--7-7-6-8-6-9---------|
-5\4/5/6--5-5-4-6-4-7---------|

[verse2]

------------------------------|--------------------------------------|
------------------------------|--------------------------------------|
------------------------------|--------------------------------------|
------------------------------|--------------------------------------|
-----6-6---7---7---6-7--------|-----4-4---5---5---4-5----(two times)-|
-7-6-----6---6---7------------|-5-4-----4---4---5--------------------|

----------------------------------------------------------------------|
----------------------------------------------------------------------|
----------------------------------------------------------------------|
-----------------------------------------10-9-8-----------------------|
-----6-6---7---7---6-7-------6-6---7---7--------10-9-8-6--------------|
-7-6-----6---6---7-------7-6-----6---6--7-----------------------------|

-------------------------------------------------------------------------|
-------------------------------------------------------------------------|
---------6-----------------------6-----------------------6---------------|
---------6-----------------------6-----------------------6---------------|
-8-6-8-9---8-6-8-h9~~~~--8-6-8-9---8-6-8-h9~~~~--8-6-8-9---8-6-8-h9~~~~--|
-------------------------------------------------------------------------|

-------------------------------------------------|
-------------------------------------------------|
---------6-----------------------6---------------|
---------6-----------------------6---------------|
-8-6-8-9---8-6-8-h9~~~~--8-6-8-9---8-6-8-h9~~~~--|
-------------------------------------------------|

[verse]

-------------------------------------|
-------------------------------------|
-------------------------------------|
---6---------6---------6--------(6)--|
-7^-7^-6-7^\(6)------7^-7^-6^-7\(-)--|
-------------------------------------|

----------------------------|
----------------------------|
---------6------------------|
---------6------------------|
-8-6-8-9---8-6-8-h9~~~~-----|
----------------------------|

[verse]

Solo:
-5h6h7h8-5h6h7h8-5h6h7h8--5-7\-h3-------------11h12h13-10h11h12-9h10p6-|
---------------------------------3-3-3/6-5-----------------------------|
-----------------------------------------------------------------------|
-----------------------------------------------------------------------|
-----------------------------------------------------------------------|
-----------------------------------------------------------------------|

-6/7-9^-8/10-12-10-9-6-8/13^~~~~------------------------------------|
---------------------------------2-1-0-1---1-2-1/5^~-2-1-0-1h2/11^~-|
------------------------------------------2-------------------------|
--------------------------------------------------------------------|
--------------------------------------------------------------------|
--------------------------------------------------------------------|

-----------------------/11--------4-6-----------------------------------|
--------4h5h6h7^~-8~~\------4-5-6-----4-2-2-2-2-2-0-2-0-2/8^--2-2-2-2-2-|
--x-3-5---------------------------------1-1-1-1-1-------------1-1-1-1-1-|
------------------------------------------------------------------------|
------------------------------------------------------------------------|
------------------------------------------------------------------------|

--------------------------------------------------------------------|
-1-3--2-2-2-2-2-0-2-0-2/8^--2-2-2-2-2-0-3-0-2-0-2-0-1-0-------------|
-0-2--1-1-1-1-1-------------1-1-1-1-1-------------------------------|
--------------------------------------------------------------------|
--------------------------------------------------------------------|
--------------------------------------------------------------------|

-------------------------------|
-------------------------------|
-------------------------------|
-7\6/7/8--7-7-6-8-6-9----------|
-7\6/7/8--7-7-6-8-6-9----------|
-5\4/5/6--5-5-4-6-4-7----------|

[verse]

------------------------------||----------------------------------------|
------------------------------||----------------------------------------|
------------------------------||----------------------------------------|
------------------------------||----------------------------------------|
-----6-6---7---7---6-7--------||-----4-4---5---5---4-5----(two times)---|
-7-6-----6---6---7------------||-5-4-----4---4---5----------------------|


------------------------------|----------------------------------------|
------------------------------|----------------------------------------|
------------------------------|----------------------------------------|
------------------------------|----------------------------------------|
-----6-6---7---7---6-7--------|-----4-4---5---5---4-5----(two times)---|
-7-6-----6---6---7------------|-5-4-----4---4---5----------------------|


------------------------------|
------------------------------|
---------(two times)----------|
------------------------------|
-----6-6---7---7---6-7--------|
-7-6-----6---6---7------------|

Outro:
-------------------------------|------------------------------------------|---|
-------------------------------|------------------------------------------|---|
-------------------------------|------9-8------------------9-8------------|---|
-x-x-x-x-x-x-x-x-x-x-x-x-x-x-x-|-7-6--7-6--9-8-7-6-5--7-6--7-6--9-8-7-6-5-|---|
-x-x-x-x-x-x-x-x-x-x-x-x-x-x-x-|-5-4-------7-6-5-4-3--5-4-------7-6-5-4-3-|---|
-0-0-0-0-0-0-0-0-0-0-0-0-0-0-0-|------------------------------------------|---|

------------------------------------------|
------------------------------------------|
------9-8------------------9-8------------|
-7-6--7-6--9-8-7-6-5--7-6--7-6--9-8-7-6-5-|
-5-4-------7-6-5-4-3--5-4-------7-6-5-4-3-|
------------------------------------------|

--------------------------------------------------------------------------|
--------------------------------------------------------------------------|
--------------------------------------------------------------------------|
-7-6-x-x-x-x-6-7-8-6-x-x-x-x-6-7-8-6-x-x-x-x-6-7-8-6-x-x-x-x-------4--5-6-|
-5-4-x-x-x-x-4-5-6-4-x-x-x-x-4-5-6-4-x-x-x-x-4-5-6-4-x-x-x-x-4-5-6---6----|
--------------------------------------------------------------------------|

------------------------------|
------------------------------|
------------------------------|
------------------------------|
-4-5-6-2-3-4-3-2-1-0-6--------|
---------------------4--------|

          ||: fill_4x G# :|| G# G# .
______________________________________________________________________________
7) Spiderbaby (Yeah-yeah-yeah)
------------------------------------------------------------------------------|
------------------------------------------------------------------------------|
------------------------------------------------------------------------------|
-2----3-3----2----3-3--3-3-3-3----2----3-3----2-------------------------------|
-2----1-1----2----1-1--1-1-1-1----2----1-1----2--2/17\5-----------------------|
-0----x-x----0----x-x--x-x-x-x----0----x-x----0-------------------------------|
       ( i n t r o )

--------------------------|---------------------------------------------------|
--------------------------|---------------------------------------------------|
--------------------------|---------------------------------------------------|
-5-5-4-5-5-4-5-5--6-5-6-7-|-5-5-4-5-5-4-5-5--6-5-6-7--------------------------|
-5-5-4-5-5-4-5-5--4-3-4-5-|-5-5-4-5-5-4-5-5--4-3-4-5--------------------------|
-3-3-2-3-3-2-3-3----------|-3-3-2-3-3-2-3-3-----------------------------------|
  ( 4 t i m e s )          Yeah ...

-2-----2-----2-------2-3--2-----2-----2-------3-4--2-----2-----2-----2-----2--|
-1-1-----1-----1---1------1-1-----1-----1---1------1-1-----1-----1-----1------|
-2---2-----2-----2--------2---2-----2-----2--------2---2-----2-----2-----2----|
------------------------------------------------------------------------------|
------------------------------------------------------------------------------|
------------------------------------------------------------------------------|

-----------------------|------------------------------------------------------|
-3-3---2-2---1-1---0---|------------------------------------------------------|
-----0-----0-----0-----|------------------------------------------------------|
-----------------------|-5-5-4-5-5-4-5-5--6-5-6-7-----------------------------|
-----------------------|-5-5-4-5-5-4-5-5--4-3-4-5-----------------------------|
-----------------------|-3-3-2-3-3-2-3-3--------------------------------------|

-2-----2-----2-------2-3--2-----2-----2-------3-4--2-----2-----2-----2-----2--|
-1-1-----1-----1---1------1-1-----1-----1---1------1-1-----1-----1-----1------|
-2---2-----2-----2--------2---2-----2-----2--------2---2-----2-----2-----2----|
------------------------------------------------------------------------------|
------------------------------------------------------------------------------|
------------------------------------------------------------------------------|

-----------------------|------------------------------------------------------|
-3-3---2-2---1-1---0---|------------------------------------------------------|
-----0-----0-----0-----|------------------------------------------------------|
-----------------------|------------------------------------------------------|
-----------------------|-0^0^0^0-7--0^0^0^0-6--0^0^0^0-5--0^0^0^0-4--0^0^0^0--|
-----------------------|-0^0^0^0-5--0^0^0^0-4--0^0^0^0-3--0^0^0^0-2--0^0^0^0--|

-------------------------------------------------|----------------------------|
-------------------------------------------------|----------------------------|
-------------------------------------------------|----------------------------|
-------------------------------------------------|----------------------------|
-6-7--0^0^0^0-7--0^0^0^0-6--0^0^0^0-5--0^0^0^0-4-|-0-0-0-7-0-6-0-7-0-6-0-5h7--|
-4-5--0^0^0^0-5--0^0^0^0-4--0^0^0^0-3--0^0^0^0-2-|----------------------------|
                                                                    ( 2 t i

---------------------------|--------------------------------------------------|
---------------------------|--------------------------------------------------|
---------------------------|--------------------------------------------------|
---------------------------|--------------------------------------------------|
-0-0-0-7-0-6-0-7-0-6-6-5-4-|-0-0-7-0-6-0-7-0-6-0-5h7--0-0-7-0-6-0-7-0-6-0-4vv-|
---------------------------|--------------------------------------------------|
m e s )                   Well ..

---------------------------------------------------|--------------------------|
---------------------------------------------------|--------------------------|
---------------------------------------------6vv---|--------------------------|
---------------------------------------------6vv---|--------------------------|
-0-0-7-0-6-0-7-0-6-0-5h7-0-0-7-0-6-0-7-0-6-0-4vv---|--------------------------|
---------------------------------------------------|--------------------------|

------------------------------------------------------------------------------|
------------------------------------------------------------------------------|
------------------------------------------------------------------------------|
-x-x-x--x-x---x-x-----3^xp2^x-0-x-x--x-x---x-x-----3^xp2^x-0-x-x--x-x---x-x---|
-x-x-x--x-x---x-x-----3^xp2^x-0-x-x--x-x---x-x-----3^xp2^x-0-x-x--x-x---x-x---|
------------------------------------------------------------------------------|


--------------------------|---------------------------------------------------|
--------------------------|---------------------------------------------------|
--------------------------|---------------------------------------------------|
-3^xp2^x-0-x-x--x-x---x-x-|---------------------------------------------------|
-3^xp2^x-0-x-x--x-x---x-x-|-0-0-7-0-6-0-7-0-6-5h6h7--0-0-7-0-6-0-7-0-6-7p6p5--|
--------------------------|---------------------------------------------------|
                          Well ...

----------------------------------------------------|-------------------------|
----------------------------------------------------|-------------------------|
----------------------------------------------6*7---|-------------------------|
----------------------------------------------6*7---|-------------------------|
-0-0-7-0-6-0-7-0-6-5h6h7--0-0-7-0-6-0-7-0-6-0-4*5vv-|-------------------------|
----------------------------------------------------|-------------------------|

-2-----2-----2-------2-3--2-----2-----2-------3-4--2-----2-----2----2-----2---|
-1-1-----1-----1---1------1-1-----1-----1---1------1-1-----1-----1----1-------|
-2---2-----2-----2--------2---2-----2-----2--------2---2-----2----2-----2-----|
------------------------------------------------------------------------------|
------------------------------------------------------------------------------|
------------------------------------------------------------------------------|
                 ( n o  d i s t o r s i o n )

----------------------2-----2-----2-------2-3--2-----2-----2-------2-3-4--2---|
-3-3---2-2---1-1---0--1-1-----1-----1---1------1-1-----1-----1---1--------1---|
-----0-----0-----0----2---2-----2-----2--------2---2-----2-----2----------2---|
------------------------------------------------------------------------------|
------------------------------------------------------------------------------|
------------------------------------------------------------------------------|


-----2-----2-------0-----------------------|----------------------------------|
-1-----1-----1---1---3-3---2-2---1-1---0---|----------------------------------|
---2-----2-----2---------0-----0-----0-----|----------------------------------|
-------------------0-----------------------|-----------2-3--------------------|
-------------------------------------------|-----------2-3--------------------|
-------------------------------------------|-0-/12\7v--0-1-x-x--0-/12\7v-7-7--|


------------------------------------------------------------------------------|
-------------------------------------------------x-x---x-x--------------x-x---|
-------------------------------------------------x-x---x-x--7/12-10-10--8-8---|
-------------------2-3---------------------------x-x---x-x--------10-10-x-x---|
-----7\------------2-3-x-x--------------------7--x-x---x-x--------------x-x---|
-0-6-5\--0-/12\7v--0-1-0-0--0-/12\7v--7-7-0-6-5-------------------------------|


-------------------------|---------------------------------------------------|
-------------------------|---------------------------------------------------|
-----7/12-10-10--8-8-----|----7/12-10-10--8-8------------7/12-10-10--8-8-----|
-7-7-------10-10-7-7-7*8-|7-7-------10-10-7-7-x-x-7--7-7-------10-10-7-7--8--|
-7-7-------------7-7-----|7-7-------------7-7-x-x-7--7-7-------------7-7--8--|
-------------------------|------------------------5-----------------------6--|
                            ( r e p e a t 1 2 t i m e s )

------------------------------------------------------------------------------|
------------------------------------------------------------------------------|
-----7/12-10-10--8------------------------------------------------------------|
-7-7-------10-10-7------------------------------------------------------------|
-7-7-------------7------------------------------------------------------------|
------------------------------------------------------------------------------|
(ends like this)

_______________________________________________________________________________
8) I am Legend

*** Standard tuning
Intro
approx. 10 seconds of effects

clean w/ fingers
|------3----------3-----------|--------------2---------|
|---------(0)--------------0--|-----0----------------0-|
|--2-------0---------0-----0--|--------0--------0----0-|
|--------------0--------2-----|--1--------1-------1----|
|-----------------------------|------------------------|
|-(0)-------------------------|------------------------|

|----------------------0--|-------------0--------|----3------3-----3-|
|-------------3-------(3)-|-3-----3--------3-----|------0------0--(0)|
|----0-----------0--------|---(0)---0---------0--|--------2------2---|
|-------2-----------2-----|----2------2----------|--2----------------|
|-3--------3--------------|----------------------|-------------------|
|-------------------------|----------------------|-(0)---------------|


|----2------2-----0--|----------0-------0-|------------2-----------|
|------0------0---0--|----3-------3-----0-|----3----------3--------|
|--------0------0----|------3--------2----|-------4-------4--------|
|-0------------------|--------2-----------|----------4-------4-----|
|(0)-----------------|-3------------------|-2-------------------2/-|
|--------------------|--------------------|------------------------|

don't slide on repeat
|---------------------|-----------------|----------------------0--|
|*--------------------|-----------------|------------5------------|
|------7-----7-----7--|-----7-----7-----|----8-----------8--------|
|--------0-----0------|-0-----0-----0---|-------7----------7------|
|*-/5------5-----5----|---5-----5-----5-|-0-------0---------------|
|---------------------|-----------------|-------------------------|

|---------0------0-------|-------------------|-0-------0-------0--|
|-5--------------------*-|-------------------|--------------------|
|----8------8------9\7---|-----0-------0-----|----5-------5-------|
|-------7-----7----------|---4---4-------4---|------4-------4-----|
|----------------------*-|-3-------(3)-----3-|--------------------|
|------------------------|-------------------|--------------------|

|--------0---------0----0-|--------------0------|-----------------0-|
|----------------0--------|-0----0-------0------|---------0---------|
|-------------------------|-----------------9\--|-----0-----0-------|
|-----------8---------8---|----8----8-----------|---5----------5----|
|-(3)/7-------7-----------|-----------7---------|-3-----3-----------|
|-------------------------|---------------------|-------------------|

|---------------0-----|-----------------------|-----------0-----(0)-|
|--0----0------(0)----|--(0)-0-----0--0-------|-----------0------0--|
|-----0---0-----------|---0----------------0--|----0---------0------|
|------------------5--|-----------------9\----|\7----7---------7----|
|-(3)--------3----(3)/|-7-------7-------7\----|\5------5-------5----|
|---------------------|-----------------------|---------------------|

|-----------0-----------|-------------0--------|--------------------|
|-------------0-------0-|-------------0--------|-----------0--------|
|----0----------0-------|-------0-------0----0-|----2--------2------|
|------7-----------7----|-7\5-5------------5---|------1--------1----|
|-4------4--------------|-4\3------3-------3---|-2------2--------2--|
|-----------------------|----------------------|--------------------|

|-3----2----2-----------|------------------0-|------------0--------|
|-------------0---------|-----------3--------|-3----3--------------|
|---2-----------2-------|----3--------3------|--------2------2-----|
|---------1-------------|------2--------2----|----2-----2-------2--|
|------------------0--2-|-3------3-----------|---------------------|
|-----------------------|--------------------|---------------------|

|-------------------|-3---2----2------------|-------------------0-|
|-----------0-------|-------------0---------|-----------3---------|
|----2--------2-----|---2-----------2-------|----3--------3-------|
|------1--------1---|--------1--------------|------2--------2-----|
|-2------2--------2-|------------------0--2-|-3------3------------|
|-------------------|-----------------------|---------------------|

|-------------0-------|------------------0-|-------------0---(0)----|
|-3----3--------------|------------0-------|-0---0-------0----------|
|--------2-------2----|-----7--------7-----|--------7------7--------|
|----2-----2--------2-|-/6----6--------6---|---6-----------------7\-|
|---------------------|-/7------7----------|-----------7------------|
|---------------------|--------------------|------------------------|

|-------------3--------|------3--------------|-------------------|
|-----5---------5----5-|--------5----5-------|-----------0-------|
|-------3------------3-|-3-------------3-----|----2--------2-----|
|--5-------5-------5---|---5-------5---------|------1--------1---|
|-(3)------------------|------------------0--|-2------2--------2-|
|----------------------|---------------------|-------------------|

|-3----2----2-------------|--------------------|------0---------0---|
|-------------------------|------------------0-|-------------0------|
|----2---------2----------|----------9---------|-9------------------|
|---------1-------0-------|------------8-------|---8------8---------|
|-------------------------|--------------7-----|------------------7-|
|--------------------3--2-|--0-----------------|--------------------|

Drums enter here
|-------0------------|-0----0--------0----|---------------------|
|----0--------0------|----0---0-----------|-------------0-------|
|----------------9---|----------9---------|----9----------9-----|
|------------------8-|------------8-----8-|------8-----------8--|
|----------7---------|--------------------|---------7-----------|
|-0------------------|--------------------|-0-------------------|

Gradually begin to fade out                  Guitar 1 out
|-0---0--------------0-|-0-----0-------------|
|---0----0--0----------|-------------0-------|
|------------------9---|-----9---------------|
|----------------------|----------8-----8----|
|---------------7------|-------------------7-|
|----------------------|---------------------|

Intro Main Verse Riff                   Ending #1         Ending #2
|----|---------------------------------|-----------------|-----------|
|----|---------------------------------|-----------------|-----------|
|----|---------------------------------|-----------------|-----------|
|----|-7/9-9\7/9-9\7/9-9\7/9-7/9-9\7/9-|-----------------|-10--7-----|
|-2--|-5/7-7\5/7-7\5/7-7\5/7-5/7-7\5/7-|-5-----7-----8\7-|-10--7-----|
|-0--|---------------------------------|-3-0-0-5-0-0-6\5-|-8---5-----|

Chorus
|--------------------------------------------------------------------|
|--------------------------------------------------------------------|
|--------------------------------------------------------------------|
|-----------------------4/5\4-2--------------------------------------|
|---3/4---3/4---4\3/4---2/3\2-0---3/4---3/4---3----------------------|
|-0-1/2-0-1/2-0-2\1/2-0---------0-1/2-0-1/2-0-1-3-2-1-0-1-2-3--------|

Slow Heavy Bridge Part  Middle Verse        Ending#1  Ending#2
|----------------------|-------------------|---------|---------------|
|----------------------|-------------------|---------|---------------|
|----------------------|-9-------9-------9-|---------|---------------|
|-2-3-2-5--------------|-9-------9-------9-|---------|---------------|
|-2-3-2-5-------5------|-7-------7-------7-|-8\7-5/7-|-5/7-8\7-------|
|-0-1-0-3-5-6-7---8-7--|---0-0-0---0-0-0---|-6\5-3/5-|-3/5-6\5-------|

Ending#3    Scale (I use) for solo Am
|---------||---|---|---|---|---|----|---|-12-|-13-|----|-15-|---|-17-|
|---------||---|---|---|---|---|-*--|---|-12-|-13-|----|-15-|---|----|
|---------||---|---|---|---|-*-|-*--|---|-12-|----|-14-|----|---|----|
|-9-------||---|---|-*-|---|-*-|-*--|---|-12-|----|-14-|-15-|---|----|
|-7-8-x-8-||-5-|---|-7-|-8-|---|-10-|---|-12-|----|-14-|-15-|---|----|
|---6-x-6-||-5-|---|-7-|-8-|---|-*--|---|----|----|----|----|---|----|


--------------------------------------------------------------------------------

________________________________________________________________________________
9) Thrust!

THRUST  by Psylip Coval - http://rzr.online.fr/

[INTRO]
-------play three times--------------|-------(\\=bar dive)---|
-------------------------------------|-----------------------|
7--6-5-------------------------------|-7-6-5-4\\-------------|
7--6-5-------------------------------|-7-6-5-4\\-------------|
5--4-3-7-----7--------7-----7--------|-5-4-3-2\\-------------|
---------6-0---6-0-5~---6-0---6-0-5~-|-----------------------|
______________________________________________________
**RHYTHM FIGURE #1**  (play both endings thru twice)

-every time--------|-first time---------|--------------|second time
-------------------|--------------------|--------------|
9-9-9--------------|--9-9-9---7-9--10-9-|-9-9-9--7~----|
9-9-9--------------|--9-9-9---7-9---8-9-|-9-9-9--7~----|
7-7-7--5p7-----5p7-|--7-7-7---5-7---8-7-|-7-7-7--5~----|
-----------5p7-----|--------------0-----|--------------|

[VERSE] (play thru twice)

-----------------------------------------------------------------|
-----------------------------------------------------------------|
----9----------7/9-----9----------7-----9----------7/9-----------|
----9----------7/9-----9----------7-----9----------7/7-7-7-7-8-8-|
----7----------5/7-----7----------5-----7----------5/7-7-7-7-8-8-|
0-0---0--0-0-0-----0-0---0--0-0-0---0-0---0--0-0-0-----5-5-5-6-6-|
[p.m] [  p.m.  ][p.m.][  p.m.  ] [p.m.][ p.m.]

[CHORUS] (w/RHYTHM FIGURE #1)

-12-----12--------12-----12-----13-----12-----12-----|
----15^----15^-------15^----15^----16^----15^----15^-|
-----------------------------------------------------|
-----------------------------------------------------|
-----------------------------------------------------|
-----------------------------------------------------|

(first end)(second end)
-12-----12-----12-----12-----|12-----12-----10-----8-----|
----15^----15^----15^----15^-|---15^----15^----13^---11^-|
-----------------------------|---------------------------|
-----------------------------|---------------------------|
-----------------------------|---------------------------|
-----------------------------|---------------------------|
_________________________________________________
[BRIDGE]
 (play thru twice)
-------------------------------------------------|
-------------------------------------------------|
------------------------------7---5--------------|
4-2-4-----4-2-4-----4-2-4-----7-5-5-3------------|
4-2-4-----4-2-4-----4-2-4-----5-5-3-3------------|
2-0-2-----2-0-2-----2-0-2-------3---1------------|

---------------------------------------------------|
---------------------------------------------------|
---------------------------------------------------|
------------------------------------------------3--|
------------------------------------------------3--|
2-2--2-2--2-2--1-1--1-1-1-1--2-2--2-2--2-2--1-1-1--|
p.m............................................]

 (first end)
----------------------------|--------------------|------------|
----------------------------|--------------------|------------|
----------------------------|--------------------|-7---5------|
----------------------------|--------------------|-7-5-5-3--4~|
----------------------------|--------------------|-5-5-3-3--4~|
2-2--2-2--2-2--1-1--1-1-1-1-|-2-2--2-2--2-2--1-1-|---3---1--2~|
p.m..............................................]
_____________________________________________________________
**SOLO INTRO**(Gtr #1)

--------------------------------------------------------------|
--------------------------------------------------------------|
-----------11-------9-------8-------8-7-----------------------|
------------------------------------------7-7-----------------|
------------9-------7-------6-------6-5---7-7-----------------|
2\----------------------------------------5-5--0-0-0-0-0--0-1-|
[w/wah........................]


-------------------------------------------------------------------|
-------------------------------------------------------------------|
-11--------11--9---------9-8---------7-------------7-------------9-|
---------------------------------------------------7-------------9-|
-9----------9--7---------7-6---------5-----5-5-5-5-5-5-5-7-7-7-7-7-|
-------------------------------------------------------------------|

__________________________________________________________________
**SOLO INTRO** (Gtr. #2)

-----------------------------------------------------------|
-----------------------------------------------------------|
-------11\--------------------------------------------8~---|
-----------------4\----------------------------------------|
-------9\--------4\-------------------------7^---7---------|
-----------------2\-------------0--------------------------|

-------------------------------------------------|
-------------------------------------------------|
---7~--------------------------------------------|
---------7-7-7--9-9-9----------------------------|
---------7-7-7--9-9-9----------------------------|
---------5-5-5--7-7-7----------------------------|
___________________________________________________
**SOLO**

-------------------------------------------------------------|
-5^-5^----5------------------5-------------------------------|
------------2----4~~~~~-2-4^---'4-----2p4---------------2p4~-|
--------------4---------------------------0-0-2p4------------|
--------------------------------------------------0-0--------|
-------------------------------------------------------------|

----------------------------------------------------------|
----------------------------5-7~~-------------------------|
-9--9-7-----------2---2p4^-----------------2---2p4^--2----|
---------2p4-4-4---4--------------2p4-4-4---4----------4~-|
-7--7-5---------------------------------------------------|
----------------------------------------------------------|

-14-----14-----14-----14-----14-----14-----14-----14-----|
----17^----17^----17^----17^----17^----17^----17^----17--|
---------------------------------------------------------|
---------------------------------------------------------|
---------------------------------------------------------|
---------------------------------------------------------|

(tap this..........
-14-----14-----14-----14------14\------h17p14p12-----------|
----17^----17^----17^----17^-----17^\------------h17p14p12-|
-----------------------------------------------------------|
-----------------------------------------------------------|
-----------------------------------------------------------|
-----------------------------------------------------------|

............................................................)
-h17p14p12-----------h17p14p12-----------h17p14p12-----------|
-----------h17p14p12-----------h17p14p12-----------h17p14p12-|
-------------------------------------------------------------|
-------------------------------------------------------------|
-------------------------------------------------------------|
-------------------------------------------------------------|

-------------17^~~~'17---------------------------------------------|
-----------------------17^-'17~~~~~~17\\\\\\\----------------------|
-------------------------------------------------------------------|
-------------------------------------5---------------5-------------|
-14-14-14-14---------------------------7-5---5---------7-5---5-----|
-------------------------------------------7---7-6-0-------7---7-6-|

---------------------------------------------------------------|
---------------------------------------------------------------|
---------------------------------------------------------------|
--5----------------5--7-8--------------------------------------|
----7-5---5--------5--7-8--------------------------------------|
0-------7---7-6-5--3--5-6--1-0-0--2-0-0--3-0-0--4-0-0-5-0--6-0-|
  [P.M................................]

-----------------------------------------------------------------|
-----------------------------------------------------------------|
-----------------------------------------------------------------|
5--7-8--------------------------------------5--6-7---------------|
5--7-8--------------------------------------5--6-7---------------|
3--5-6--1-0-0--2-0-0--3-0-0--4-0-0-5-0--6-0-3--4-5--1-0-0--2-0-0-|

-------------------------------------------------------|
-------------------------------------------------------|
-------------------------------------------------------|
----------------------5---------------5----------------|
------------------------5-7---5---------5-7---5--------|
3-0-0--4-0-0-5-0--6-0-------7---7-6-5-------7---7-6-5--|

----------------------------------------------------|
----------------------------------------------------|
------------------9--9\\--------9\------------------|
----4---3---3---------------------------------------|
----2---1---3-----7--7\\--------7\------------------|
0-----------1--0--0--0\\----------------------------|
___________________________________________________________
10) One Big Crunch

Only parts of the corpse had been removed
Only parts of the corpse had been removed
Only parts of the corpse had been removed
Only parts of the corpse had been removed

..Making more impresion on the skull than on the lady
--------------------
What a creepy song!!
___________________________________________________________
11) Grindhouse (A Go-Go)
----D0N'T KN0W----
___________________________________________________________
12) Starface

Played with very heavy fuzz.

(Starts with: "T-minus 5-4-3-2-1---------------------|)
|----------------------------------------------------|
|------------------------------------8---------------|
|--3-----------9--7------------------x---------------|
|--2-----------9--7---------7--------7---------------|
|--2-----------7--5---------7--------7---------------|
|--0------------------------5--------0---------------|

|----------------------------------------------|
|----------------------------------------------|
|--------------------9--7----------------------|
|---5--4--2----------9--7----------7-----------|
|---5--4--2----------7--5----------7-----------|
|---3--2--0------------------------5-----------|

|---------------------------------------------------------|
|---------------------------------------------------------|
|----12-12--12-12--12-12--12-12--12--12-------------------|
|----x--x---x--x---x--x---x--x---x---x--------------------|
|----10-10--10-10--10-10--10-10--10--10-------------------|
|---------------------------------------------------------|

|-----------------------------------------------------------|
|-----------------------------------------------------2--0--|
|-----------------------------------------------------2--0--|
|----------3-0--------------------------3-0---0-3-0---2--0--|
|---------------2---0-----0-----------------2-------2-------|
|-0-0-0-0-------------3-0---3--0--0-0-----------------------|
 ^ all rapid ^
|-----------------------------------------------------------|
|-----------------------------------------------------2--0--|
|-----------------------------------------------------2--0--|
|----------3-0--------------------------3-0---0-3-0---2--0--|
|---------------2---0-----0-----------------2-------2-------|
|-0-0-0-0-------------3-0---3--0--0-0-----------------------|
 ^ all rapid ^
|-----------------------------------------------------------|
|-----------------------------------------------------------|
|-----------------------------------------------------------|
|-----------------------0h2---------------------------------|
|-----------------------------------------------------------|
|-0--0-0--4-0-5-0-7--0-------0--0-0--4-0-5-7--3~------------|

|-----------------------------------------------------------|
|-----------------------------------------------------------|
|----------------------0h2---14
Добавлено: 27.01.2014
Другие материалы по этой песне:
  • Аккорды и текст

Страница создана 14.11.2013
http://primanota.ru/white-zombie/la-sexorcisto-chords.htm
Привет, Гость.
Предлагаем пройти революционный курс по гитаре.
Подарок от PrimaNota.Ru, забирай!