PrimaNota.ru - самый крупный в мире бесплатный архив песенных текстов, аккордов, табулатур и нот


White Zombie - Godslayer - текст песни, таба, видео

Регистрация Запомнить меня
Войти через:  Facebook Google Twitter Vk Yandex Mail.ru

White Zombie - Godslayer - текст песни, таба, видео

Печатать
Просмотров: 76
Band:  White Zombie
Album: Make Them Die Slowly
Song:  Godslayer

Copyright (c)  (Caralina) (1989)
Version 1.0 - (13/02/07)

Transcribed By: Steve
Email:          stephen.elvidge1@ntlworld.com


.  - palm mute           /  - slide up to
\  - slide down to       ~  - vibrato
h  - hammer on           b  - Bend
p  - pull off            Suffixes for bend
t  - tap                 f  - full bend    h - half bend
ph - pinched harmonic    q  - quarter bend t - tap bend
*  - see comment         ^  - Hold bend    r release bend
x  - Stuccatto           ~  - vibrato bend
,  - slight palm mute    () - ghost note, sustained note
"  - tremolo note        <> - harmonic
pb - pre bend

Tuning E A D G B E


 Main Riff
           
|-----------------------------------------------|
|-----------------------------------------------|
|-----------------------------------------------|
|-----------------------------------------------|
|-2----2--2--5--(5)--2----(2)----7--/9--\7--/9--|
|-0----0--0--3--(3)--0----(0)----5--/7--\5--/7--|

|-----------------------------------------------|
|-----------------------------------------------|
|-----------------------------------------------|
|-----------------------------------------------|
|-2----2--2--5--(5)-\2----(2)----7--\5--/6-\5---|
|-0----0--0--3--(3)-\0----(0)----5--\3--/4-\3---|

 Rpt 8 X

    [----PM----]  [----PM----]  [----PM----]  [----PM----]
|-----------------------------------------------------------------------|
|-8-------------8-------------8-------------8-------------8-------------|
|-7-------------7-------------7-------------7-------------7-------------|
|-6-------------6-------------6-------------6-------------6-------5-----|
|-7-------------7-------------7-------------7-------------7-7p5-----6-5-|
|---000-000-000---000-000-000---000-000-000---000-000-000-------7-------|

           ~~~~~
|----------------|
|----------------|
|----------------|
|-2--------------|
|-2--------------|
|-0---0-4p3------|

    [----PM----]  [----PM----]                       ~~~~~~~~~ 
|-------------------------------------------------------------|
|-8-------------8-------------8-------------------------------|
|-7-------------7-------------7-------------------------------|
|-6-------------6-------------6-----5-------2-----------------|
|-7-------------7-------------7-7p5-----6-5-2-----------------|
|---000-000-000---000-000-000---------7-----0---0-4p3---------| Rpt 4 X

    [----PM----]  [----PM----]                       
|-------------------------------------------------------|
|-8-------------8-------------8-------------------------|
|-7-------------7-------------7-------------------------|
|-6-------------6-------------6-----5-------2-----------|
|-7-------------7-------------7-7p5-----6-5-2-7-5-------|
|---000-000-000---000-000-000---------7-----0-----7-6-5-|

                   ~~
|-------------------------|
|-------------------------|
|-------------------------|
|----------2--------------|
|-2------------------2----|
|-0--0-3-4---5-4-0-3-0----|

    h h~~   h h              ph~
|--------------------------------------|
|--------------------------------------|
|--------------------------------------|
|-----2--------7--7-7\6-6\---3---------|
|--------------------------5----5--2---|
|-3-4-----3-4-5--5-5\4-4\3------3--0---|




END

Добавлено: 07.07.2013
Другие материалы по этой песне:
  • Аккорды и текст

Страница создана 08.04.2012
http://primanota.ru/white-zombie/godslayer-chords.htm
Привет, Гость.
Предлагаем пройти революционный курс по гитаре.
Подарок от PrimaNota.Ru, забирай!