PrimaNota.ru - самый крупный в мире бесплатный архив песенных текстов, аккордов, табулатур и нот


White Zombie - Gentleman Junkie - таба, видео

Регистрация Запомнить меня
Войти через:  Facebook Google Twitter Vk Yandex Mail.ru

White Zombie - Gentleman Junkie - таба, видео

Печатать
Просмотров: 79
Band:  White Zombie
Album: Gods on Voodoo Moon
Song:  Gentleman Junkie

Copyright (c)  (Bat Cave) (1985)
Version 1.0 - (12/02/07)

Transcribed By: Steve
Email:          stephen.elvidge1@ntlworld.com


.  - palm mute           /  - slide up to
\  - slide down to       ~  - vibrato
h  - hammer on           b  - Bend
p  - pull off            Suffixes for bend
t  - tap                 f  - full bend    h - half bend
ph - pinched harmonic    q  - quarter bend t - tap bend
*  - see comment         ^  - Hold bend    r release bend
x  - Stuccatto           ~  - vibrato bend
,  - slight palm mute    () - ghost note, sustained note
"  - tremolo note        <> - harmonic
pb - pre bend

Tuning E A D G B E

 Drums on own

 Main Riff

  PM    PM    PM    PM
|--------------------------------|
|--------------------------------|
|--------------------------------|
|-----1--------------------------|
|-1-1---1-1-4p1-1-2p1-1-2--4-2-4-|
|--------------------------------| Rpt 6 X

 Solo with delay

|-11-10---------------11-10----------14-13---(13)-feedback----|
|-------11----(11)----------11-12p11--------------------------|
|---------10--(10)--------------------------------------------|
|-------------------------------------------------------------|
|-------------------------------------------------------------|
|-------------------------------------------------------------|

|-11-10---------------11-10-11-10---------------11----11----11-----|
|-------11----(11)----------------11------(11)-----11----11----11--|
|---------10--(10)-------------------10---(10)---------------------|
|------------------------------------------------------------------|
|------------------------------------------------------------------|
|------------------------------------------------------------------|

 Rpt Main Riff 4 X for verse

 Chorus


|--------------------------------|
|--------------------------------|
|-4---6--------------------------|
|-4---6---6---6\4-4-4-4-4-4-4-4--|
|-2---4---6---6\4-4-4-4-4-4-4-4--|
|---------4---4\2-2-2-2-2-2-2-2--|

 Guitar 1
[--------------------------------|
[--------------------------------|
[-4---6--------------------------|
[-4---6---6---6\4-4-4-4-4-4------|
[-2---4---6---6\4-4-4-4-4-4------|
[---------4---4\2-2-2-2-2-2------|
[Guitar 2
[                ~~~~~~~~~~~
[--------------------------/7p6--|
[---------------7----------/7----|
[-4---6--------------------------|
[-4---6---6---6------------------|
[-2---4---6---6------------------|
[---------4---4------------------|


|--------------------------------|
|--------------------------------|
|-4---6--------------------------|
|-4---6---6---6\4-4-4-4-4-4-4-4--|
|-2---4---6---6\4-4-4-4-4-4-4-4--|
|---------4---4\2-2-2-2-2-2-2-2--|

|----------------|
|----------------|
|-4---6----------|
|-4---6---6-\----|
|-2---4---6-\----|
|---------4-\----|

 Drum fill

 Rpt Verse
 Rpt Chorus

 Feedback

 Solo with delay

|-11-10--------------11-10-13---(13)----1313131313131313\-|
|-------11----(11)----------------------------------------|
|---------10--(10)----------------------------------------|
|---------------------------------------------------------|
|---------------------------------------------------------|
|---------------------------------------------------------|

                                     ~~~~~~~~~~~~~~~~~~~
|----111111-10-----(10)----11-10----------------------(11)(10)-----|
|---------------11-(11)----------11---------------------------(11)-|
|-10--------------------------------10-----------------------------|
|------------------------------------------------------------------|
|------------------------------------------------------------------|
|------------------------------------------------------------------|


                                 C#
|-----------------------------------9---9---9-------------------------|
|-11-11---11------------------------9---9---9-------------------------|
|-10-10---10b---b10b10r10p8-------9b--9b--9b--11-9-11-9-11-b-111111/--|
|---------------------------11-8--------------------------------------|
|---------------------------------------------------------------------|
|---------------------------------------------------------------------|

  F                                   A#
     h
|---------------------11-11--------------14-1616-14-13-14-1616-14-13-|
|-------1111-13b---r--------13-11----11b-----------------------------|
|-11-13---------------------------13---------------------------------|
|--------------------------------------------------------------------|
|--------------------------------------------------------------------|
|--------------------------------------------------------------------|

 Guitar 1
                                           C#
                 ~~~~~~~~~~~~~~~~                              ~~~~~
[-------------------------------------------------------------------|
[-14-13-11-9--9----------------------------11-----------------14br--|
[---------------10----------------8-10-----------------13-----------|
[--------------------------------------8\7--------------------------|
[-------------------------------------------------------------------|
[-------------------------------------------------------------------|
[Guitar 2
[-----------------18\----18----18\------------21\------21\----------|
[-------------------------------------------------------------------|
[-------------------------------------------------------------------|
[-------------------------------------------------------------------|
[-------------------------------------------------------------------|
[-------------------------------------------------------------------|

 F
 Guitar 1
[-----------------------------11---11---11---11------------|
[-14---13-11-11\9----11b----11b--11b--11b--11b--11-14-11-9-|
[----------------------------------------------------------|
[----------------------------------------------------------|
[----------------------------------------------------------|
[----------------------------------------------------------|
[Guitar 2
[-----------------------13b---------13b--------------------|
[-15b------14b---------------------------------------------|
[----------------------------------------------------------|
[----------------------------------------------------------|
[----------------------------------------------------------|
[----------------------------------------------------------|

 F
 Guitar 1
[-------------------------|
[-------------------11fb--|
[-------------------------|
[-------------------------|
[-------------------------|
[-------------------------|
[Guitar 2
[-21p18-21p18-21p18-------|
[-------------------16fb--|
[-------------------------|
[-------------------------|
[-------------------------|
[-------------------------|


 Rpt Verse
 Rpt Chorus

 Rpt Main Riff 6 X with flanger effect

|-----|
|-----|
|-----|
|-1---|
|-----|
|-----|


END
Добавлено: 27.10.2013
Другие материалы по этой песне:
  • Аккорды и текст

Страница создана 27.10.2013
http://primanota.ru/white-zombie/gentleman-junkie-chords.htm
Привет, Гость.
Предлагаем пройти революционный курс по гитаре.
Подарок от PrimaNota.Ru, забирай!