PrimaNota.ru - самый крупный в мире бесплатный архив песенных текстов, аккордов, табулатур и нот


White Zombie - Electric Head Pt2 - таба, видео

Регистрация Запомнить меня
Войти через:  Facebook Google Twitter Vk Yandex Mail.ru

White Zombie - Electric Head Pt2 - таба, видео

Печатать
Просмотров: 46
As recorded by White Zombie
(From the 1995 Album ASTRO CREEP:2000)

Transcribed by mjl927
	

Words and Music by White Zombie

E5
0 2 x x x x
	
Eb5
0 1 x x x x
	
G5
3 5 x x x x

Gtr I (E A D G B E) - 'Untitled'
Gtr II (E A D A B E) - 'Untitled'
Gtr III (E A D G B E) - 'Untitled'

 Intro: Spoken
  Q=120
 4/4
  Gtr I
  W            E E E E E E  E  E
|----------||--------------------|
|----------||o-------------------|
|----------||--------------------|
|----------||--4-4-7-7-9-9-10-10-|
|----------||o-------------------|
|----------||--2-2-5-5-7-7--8--8-|
|
| Gtr II
| W            E E E E E E  E  E
|----------||--------------------|
|----------||o-------------------|
|----------||--------------------|
|----------||--4-4-7-7-9-9-10-10-|
|----------||o-------------------|
|----------||--2-2-5-5-7-7--8--8-|


  E E E E E E E E  4x     E E S E. E E S E.   4x
|------------------||-||----------------------||
|-----------------o||-||o--------------------o||
|------------------||-||----------------------||
|-4-4-7-7-9-9-3-3--||-||----------------------||
|-----------------o||-||o--------------------o||
|-2-2-5-5-7-7-1-1--||-||--0-0-2-3--0-0-2-3----||
|
| E E E E E E E E  4x     E E S E. E E S E.   4x
|------------------||-||------3-3------3-3----||
|-----------------o||-||o-----3-3------3-3---o||
|------------------||-||------3-3------3-3----||
|-4-4-7-7-9-9-3-3--||-||----------------------||
|-----------------o||-||o--------------------o||
|-2-2-5-5-7-7-1-1--||-||--0-0------0-0--------||


   Verse
    $
    E5              G5E5                      G5E5
    E E E E E S S S E S   S S E E E E S S S S S S
||----------------------|-------------------------|
||o---------------------|-------------------------|
||----------------------|-------------------------|
||----------------------|-------------------------|
||o-2-2-2-2-2-2-2-2-5-2-|-2-2-2-2-2-2-2-2-2-2-5-2-|
||--0-0-0-0-0-0-0-0-3-0-|-0-0-0-0-0-0-0-0-0-0-3-0-|


                  G5E5                    G5E5                  G5E5
  E E E E E S S S E S   S S E E E E S S S E S   E E E E E S S S E S
|---------------------|-----------------------|---------------------|
|---------------------|-----------------------|---------------------|
|---------------------|-----------------------|---------------------|
|---------------------|-----------------------|---------------------|
|-2-2-2-2-2-2-2-2-5-2-|-2-2-2-2-2-2-2-2-2-5-2-|-2-2-2-2-2-2-2-2-5-2-|
|-0-0-0-0-0-0-0-0-3-0-|-0-0-0-0-0-0-0-0-0-3-0-|-0-0-0-0-0-0-0-0-3-0-|


                    G5E5                  G5E5                    G5E5
  S S E E E E S S S E S   E E E E E S S S E S   S S E E E E S S S E S
|-----------------------|---------------------|------------------------|
|-----------------------|---------------------|------------------------|
|-----------------------|---------------------|------------------------|
|-----------------------|---------------------|------------------------|
|-2-2-2-2-2-2-2-2-2-5-2-|-2-2-2-2-2-2-2-2-5-2-|-2-2-2-2-2-2-2-2-2-5-2--|
|-0-0-0-0-0-0-0-0-0-3-0-|-0-0-0-0-0-0-0-0-3-0-|-0-0-0-0-0-0-0-0-0-3-0--|


 Chorus
                         Eb5
                         PM------------|
  Q  E E +E  S S E S S   E E E E E E E E   Q  E E +E  S S E S S
|----------------------|-----------------|----------------------|
|----------------------|-----------------|----------------------|
|----------------------|-----------------|----------------------|
|----4-------4-4---4-4-|-----------------|----4-------4-4---4-4-|
|----------------------|-1-1-1-1-1-1-1-1-|----------------------|
|-2----1-(1)-----0-----|-0-0-0-0-0-0-0-0-|-2----1-(1)-----0-----|


  Eb5                                      Eb5
  PM------------|                          PM------------|
  E E E E E E E E   Q  E E +E  S S E S S   E E E E E E E E
|-----------------|----------------------|------------------|
|-----------------|----------------------|------------------|
|-----------------|----------------------|------------------|
|-----------------|----4-------4-4---4-4-|------------------|
|-1-1-1-1-1-1-1-1-|----------------------|-1-1-1-1-1-1-1-1--|
|-0-0-0-0-0-0-0-0-|-2----1-(1)-----0-----|-0-0-0-0-0-0-0-0--|


                         1.
              To Coda
                         Eb5
                         PM------------------------------|
  Q  E E +E  S S E S S   E E E E E E E E   E E E E E E E E
|----------------------|-----------------|------------------|
|----------------------|-----------------|------------------|
|----------------------|-----------------|------------------|
|----4-------4-4---4-4-|-----------------|------------------|
|----------------------|-1-1-1-1-1-1-1-1-|-1-1-1-1-1-1-1-1--|
|-2----1-(1)-----0-----|-0-0-0-0-0-0-0-0-|-0-0-0-0-0-0-0-0--|


                                        2.
  PM----------------------------------------------------|
  E E E E E E E E   E E E E E E E E     E E E E E E E S S
|-----------------|------------------||-------------------|
|-----------------|-----------------o||-------------------|
|-----------------|------------------||-------------------|
|-----------------|------------------||-------------------|
|-1-1-1-1-1-1-1-1-|-1-1-1-1-1-1-1-1-o||-1-1-1-1-1-1-1-1-1-|
|-0-0-0-0-0-0-0-0-|-0-0-0-0-0-0-0-0--||-0-0-0-0-0-0-0-0-0-|


  PM------------------------------------------------------|
  E E E E E E E S S   E E E E E E E S S   E E E E E E E S S
|-------------------|-------------------|-------------------|
|-------------------|-------------------|-------------------|
|-------------------|-------------------|-------------------|
|-------------------|-------------------|-------------------|
|-1-1-1-1-1-1-1-1-1-|-1-1-1-1-1-1-1-1-1-|-1-1-1-1-1-1-1-1-1-|
|-0-0-0-0-0-0-0-0-0-|-0-0-0-0-0-0-0-0-0-|-0-0-0-0-0-0-0-0-0-|


   Interlude
    Q  E E +E  E E E   Q  E E +E  E E E   Q  E E +E  E E E   Q  E E +E  E E E
||-------------------|------------------|------------------|-------------------|
||o----7-------7---7-|----7-------7---7-|----7-------7---7-|----7-------7---7--|
||-------------------|------------------|------------------|-------------------|
||--4----5-(5)---6---|-4----5-(5)---6---|-4----5-(5)---6---|-4----5-(5)---6----|
||o------------------|------------------|------------------|-------------------|
||-------------------|------------------|------------------|-------------------|


  E E E E E E  E  E   E E E E E E E E   E E E E E E  E  E   E E E E E E E E
|-------------------|-----------------|-------------------|-----------------|
|-------------------|-----------------|-------------------|-----------------|
|-------------------|-----------------|-------------------|-----------------|
|-4-4-7-7-9-9-10-10-|-4-4-7-7-9-9-3-3-|-4-4-7-7-9-9-10-10-|-4-4-7-7-9-9-3-3-|
|-------------------|-----------------|-------------------|-----------------|
|-2-2-5-5-7-7--8--8-|-2-2-5-5-7-7-1-1-|-2-2-5-5-7-7--8--8-|-2-2-5-5-7-7-1-1-|


  1.
  E E E E E E  E  E   E E E E E E E E   E E E E E E  E  E   E E E E E E E E
|-------------------|-----------------|-------------------|------------------||
|-------------------|-----------------|-------------------|-----------------o||
|-------------------|-----------------|-------------------|------------------||
|-4-4-7-7-9-9-10-10-|-4-4-7-7-9-9-3-3-|-4-4-7-7-9-9-10-10-|-4-4-7-7-9-9-3-3--||
|-------------------|-----------------|-------------------|-----------------o||
|-2-2-5-5-7-7--8--8-|-2-2-5-5-7-7-1-1-|-2-2-5-5-7-7--8--8-|-2-2-5-5-7-7-1-1--||


 Sound Effects Break
  2.
                           D.S. al Coda
  Wx2
|---------------------------------------|
|---------------------------------------|
|---------------------------------------|
|---------------------------------------|
|---------------------------------------|
|---------------------------------------|


 Coda
  &
  PM-------------------------------------
  E E E E E E E S S   E E E E E E E S S
|-------------------|-------------------|
|-------------------|-------------------|
|-------------------|-------------------|
|-------------------|-------------------|
|-1-1-1-1-1-1-1-1-1-|-1-1-1-1-1-1-1-1-1-|
|-0-0-0-0-0-0-0-0-0-|-0-0-0-0-0-0-0-0-0-|


 -------------------------------------|
  E E E E E E E S S   E E E E E E E S S
|-------------------|-------------------|
|-------------------|-------------------|
|-------------------|-------------------|
|-------------------|-------------------|
|-1-1-1-1-1-1-1-1-1-|-1-1-1-1-1-1-1-1-1-|
|-0-0-0-0-0-0-0-0-0-|-0-0-0-0-0-0-0-0-0-|


 Outro
  Gtr I
   S  S S S  S  S S S  S  S S S  S  S S S
|-----------------------------------------|
|-----------------------------------------|
|-----------------------------------------|
|--4--4-4-4--4--4-4-4--4--4-4-4--4--4-4-4-|
|-----------------------------------------|
|--2--2-2-2--2--2-2-2--2--2-2-2--2--2-2-2-|
|
| Gtr II
|  S  S E    S  S E    S  S E    S  S E
|-----------------------------------------|
|-----------------------------------------|
|-11-11-----11-11-----11-11-----11-11-----|
|-----------------------------------------|
|--9--9------9--9------9--9------9--9-----|
|-----------------------------------------|
|
| Gtr III
|  TP                  TP
|  H                   H
|-----------------------------------------|
|-----------------------------------------|
|-----------------------------------------|
|-----------------------------------------|
|-----------------------------------------|
|--2-------------------2------------------|


   S  S S S  S  S S S  S   S S S  S   S S S
|-------------------------------------------|
|-------------------------------------------|
|-------------------------------------------|
|--7--7-7-7--7--7-7-7--7---7-7-7--7---7-7-7-|
|-------------------------------------------|
|--5--5-5-5--5--5-5-5--5---5-5-5--5---5-5-5-|
|
|  S  S E    S  S E    S   S E    S   S E
|-------------------------------------------|
|-------------------------------------------|
|-14-14-----14-14-----14--14-----14--14-----|
|-------------------------------------------|
|-12-12-----12-12-----12--12-----12--12-----|
|-------------------------------------------|
|
|  TP                  TP         TP
|  H                   Q          Q
|-------------------------------------------|
|-------------------------------------------|
|-------------------------------------------|
|-------------------------------------------|
|-------------------------------------------|
|--2------------------[3]--------[3]--------|


   S   S  S  S  S   S S S  S   S  S  S  S   S S S
|-------------------------------------------------|
|-------------------------------------------------|
|-------------------------------------------------|
|--6---6--6--6--6---6-6-6--6---6--6--6--6---6-6-6-|
|-------------------------------------------------|
|--4---4--4--4--4---4-4-4--4---4--4--4--4---4-4-4-|
|
|  S   S  E     S   S E    S   S  E     S   S E
|-------------------------------------------------|
|-------------------------------------------------|
|-13--13-------13--13-----13--13-------13--13-----|
|-------------------------------------------------|
|-11--11-------11--11-----11--11-------11--11-----|
|-------------------------------------------------|
|
|  E      E     Q          E      E     Q
|-------------------------------------------------|
|-------------------------------------------------|
|-------------------------------------------------|
|-------------------------------------------------|
|-------------------------------------------------|
|-[2]----[2]---[2]--------[2]----[1]---[1]--------|


   S   S S S  S  S S S  S   S S S  S  S S S
|-------------------------------------------|
|-------------------------------------------|
|-------------------------------------------|
|--5---5-5-5--5--5-5-5--5---5-5-5--5--5-5-5-|
|-------------------------------------------|
|--3---3-3-3--3--3-3-3--3---3-3-3--3--3-3-3-|
|
|  S   S E    S  S E    S   S E    S  S E
|-------------------------------------------|
|-------------------------------------------|
|-12--12-----12-12-----12--12-----12-12-----|
|-------------------------------------------|
|-10--10-----10-10-----10--10-----10-10-----|
|-------------------------------------------|
|
|  H                    H
|-------------------------------------------|
|-------------------------------------------|
|-------------------------------------------|
|-------------------------------------------|
|-------------------------------------------|
|-[1]------------------[1]------------------|


   S   S S S  S  S S S  S   S S S  S  S S S
|-------------------------------------------|
|-------------------------------------------|
|-------------------------------------------|
|--4---4-4-4--4--4-4-4--4---4-4-4--4--4-4-4-|
|-------------------------------------------|
|--2---2-2-2--2--2-2-2--2---2-2-2--2--2-2-2-|
|
|  S   S E    S  S E    S   S E    S  S E
|-------------------------------------------|
|-------------------------------------------|
|-11--11-----11-11-----11--11-----11-11-----|
|-------------------------------------------|
|--9---9------9--9------9---9------9--9-----|
|-------------------------------------------|
|
|  TP                   TP
|  H                    H
|-------------------------------------------|
|-------------------------------------------|
|-------------------------------------------|
|-------------------------------------------|
|-------------------------------------------|
|-[1]------------------[1]------------------|


   S   S S S  S  S S S  S   S S S  S  S S S
|-------------------------------------------|
|-------------------------------------------|
|-------------------------------------------|
|--7---7-7-7--7--7-7-7--7---7-7-7--7--7-7-7-|
|-------------------------------------------|
|--5---5-5-5--5--5-5-5--5---5-5-5--5--5-5-5-|
|
|  S   S E    S  S E    S   S E    S  S E
|-------------------------------------------|
|-------------------------------------------|
|-14--14-----14-14-----14--14-----14-14-----|
|-------------------------------------------|
|-12--12-----12-12-----12--12-----12-12-----|
|-------------------------------------------|
|
|  TP                   TP
|  H                    H
|-------------------------------------------|
|-------------------------------------------|
|-------------------------------------------|
|-------------------------------------------|
|-------------------------------------------|
|-[1]------------------[2]------------------|


   S   S S S  S   S S S  S   S S S  S   S S S
|---------------------------------------------|
|---------------------------------------------|
|---------------------------------------------|
|--6---6-6-6--6---6-6-6--6---6-6-6--6---6-6-6-|
|---------------------------------------------|
|--4---4-4-4--4---4-4-4--4---4-4-4--4---4-4-4-|
|
|  S   S E    S   S E    S   S E    S   S E
|---------------------------------------------|
|---------------------------------------------|
|-13--13-----13--13-----13--13-----13--13-----|
|---------------------------------------------|
|-11--11-----11--11-----11--11-----11--11-----|
|---------------------------------------------|
|
|  TP         TP         TP         TP
|  Q          Q          Q          Q
|---------------------------------------------|
|---------------------------------------------|
|---------------------------------------------|
|---------------------------------------------|
|---------------------------------------------|
|-[2]--------[2]--------[2]--------[3]--------|


   S   S S S  S  S S S  S   S S S  S  S S S
|-------------------------------------------|
|-------------------------------------------|
|-------------------------------------------|
|--5---5-5-5--5--5-5-5--5---5-5-5--5--5-5-5-|
|-------------------------------------------|
|--3---3-3-3--3--3-3-3--3---3-3-3--3--3-3-3-|
|
|  S   S E    S  S E    S   S E    S  S E
|-------------------------------------------|
|-------------------------------------------|
|-12--12-----12-12-----12--12-----12-12-----|
|-------------------------------------------|
|-10--10-----10-10-----10--10-----10-10-----|
|-------------------------------------------|
|
|  TP                   TP
|  H                    H
|-------------------------------------------|
|-------------------------------------------|
|-------------------------------------------|
|-------------------------------------------|
|-------------------------------------------|
|-[3]------------------[4]------------------|


   S  S S S  S  S S S  S  S S S  S  S S S
|-----------------------------------------|
|-----------------------------------------|
|-----------------------------------------|
|--4--4-4-4--4--4-4-4--4--4-4-4--4--4-4-4-|
|-----------------------------------------|
|--2--2-2-2--2--2-2-2--2--2-2-2--2--2-2-2-|
|
|  S  S E    S  S E    S  S E    S  S E
|-----------------------------------------|
|-----------------------------------------|
|-11-11-----11-11-----11-11-----11-11-----|
|-----------------------------------------|
|--9--9------9--9------9--9------9--9-----|
|-----------------------------------------|
|
|  S  S E    S  S E    S  S E    S  S E
|-14-14-----14-14-----14-14-----14-14-----|
|-----------------------------------------|
|-11-11-----11-11-----11-11-----11-11-----|
|-----------------------------------------|
|-----------------------------------------|
|-----------------------------------------|


   S  S S S  S  S S S  S  S S S  S  S S S
|-----------------------------------------|
|-----------------------------------------|
|-----------------------------------------|
|--7--7-7-7--7--7-7-7--7--7-7-7--7--7-7-7-|
|-----------------------------------------|
|--5--5-5-5--5--5-5-5--5--5-5-5--5--5-5-5-|
|
|  S  S E    S  S E    S  S E    S  S E
|-----------------------------------------|
|-----------------------------------------|
|-14-14-----14-14-----14-14-----14-14-----|
|-----------------------------------------|
|-12-12-----12-12-----12-12-----12-12-----|
|-----------------------------------------|
|
|  S  S E    S  S E    S  S E    S  S E
|-14-14-----14-14-----14-14-----14-14-----|
|-----------------------------------------|
|-11-11-----11-11-----11-11-----11-11-----|
|-----------------------------------------|
|-----------------------------------------|
|-----------------------------------------|


   S  S S S  S  S S S  S  S S S  S  S S S
|-----------------------------------------|
|-----------------------------------------|
|-----------------------------------------|
|--6--6-6-6--6--6-6-6--6--6-6-6--6--6-6-6-|
|-----------------------------------------|
|--4--4-4-4--4--4-4-4--4--4-4-4--4--4-4-4-|
|
|  S  S E    S  S E    S  S E    S  S E
|-----------------------------------------|
|-----------------------------------------|
|-13-13-----13-13-----13-13-----13-13-----|
|-----------------------------------------|
|-11-11-----11-11-----11-11-----11-11-----|
|-----------------------------------------|
|
|  S  S E    S  S E    S  S E    S  S E
|-14-14-----14-14-----14-14-----14-14-----|
|-----------------------------------------|
|-11-11-----11-11-----11-11-----11-11-----|
|-----------------------------------------|
|-----------------------------------------|
|-----------------------------------------|


   S  S S S  S  S S S  S  S S S  S  S S S
|-----------------------------------------|
|-----------------------------------------|
|-----------------------------------------|
|--5--5-5-5--5--5-5-5--5--5-5-5--5--5-5-5-|
|-----------------------------------------|
|--3--3-3-3--3--3-3-3--3--3-3-3--3--3-3-3-|
|
|  S  S E    S  S E    S  S E    S  S E
|-----------------------------------------|
|-12-12-----12-12-----12-12-----12-12-----|
|-12-12-----12-12-----12-12-----12-12-----|
|-----------------------------------------|
|-10-10-----10-10-----10-10-----10-10-----|
|-----------------------------------------|
|
|  S  S E    S  S E    S  S E    S  S E
|-14-14-----14-14-----14-14-----14-14-----|
|-----------------------------------------|
|-11-11-----11-11-----11-11-----11-11-----|
|-----------------------------------------|
|-----------------------------------------|
|-----------------------------------------|


     S  S S S  S  S S S  S  S S S  S  S S S
||------------------------------------------|
||o-----------------------------------------|
||------------------------------------------|
||---4--4-4-4--4--4-4-4--4--4-4-4--4--4-4-4-|
||o-----------------------------------------|
||---2--2-2-2--2--2-2-2--2--2-2-2--2--2-2-2-|
|
|    S  S E    S  S E    S  S E    S  S E
||---9--9------9--9------9--9------9--9-----|
||o-----------------------------------------|
||---6--6------6--6------6--6------6--6-----|
||------------------------------------------|
||o-----------------------------------------|
||------------------------------------------|
|
|    S  S E    S  S E    S  S E    S  S E
||--14-14-----14-14-----14-14-----14-14-----|
||o-----------------------------------------|
||--11-11-----11-11-----11-11-----11-11-----|
||------------------------------------------|
||o-----------------------------------------|
||------------------------------------------|


   S  S S S  S  S S S  S  S S S  S  S S S
|------------------------------------------|
|------------------------------------------|
|------------------------------------------|
|--7--7-7-7--7--7-7-7--7--7-7-7--7--7-7-7--|
|------------------------------------------|
|--5--5-5-5--5--5-5-5--5--5-5-5--5--5-5-5--|
|
|  S  S E    S  S E    S  S E    S  S E
|-12-12-----12-12-----12-12-----12-12------|
|------------------------------------------|
|--9--9------9--9------9--9------9--9------|
|------------------------------------------|
|------------------------------------------|
|------------------------------------------|
|
|  S  S E    S  S E    S  S E    S  S E
|-17-17-----17-17-----17-17-----17-17------|
|------------------------------------------|
|-11-11-----11-11-----11-11-----11-11------|
|------------------------------------------|
|------------------------------------------|
|------------------------------------------|


  1.
   S  S S S  S  S S S  S  S S S  S  S S S
|-----------------------------------------|
|-----------------------------------------|
|-----------------------------------------|
|--6--6-6-6--6--6-6-6--6--6-6-6--6--6-6-6-|
|-----------------------------------------|
|--4--4-4-4--4--4-4-4--4--4-4-4--4--4-4-4-|
|
|  S  S E    S  S E    S  S E    S  S E
|-11-11-----11-11-----11-11-----11-11-----|
|-----------------------------------------|
|--8--8------8--8------8--8------8--8-----|
|-----------------------------------------|
|-----------------------------------------|
|-----------------------------------------|
|
|  S  S E    S  S E    S  S E    S  S E
|-16-16-----16-16-----16-16-----16-16-----|
|-----------------------------------------|
|-13-13-----13-13-----13-13-----13-13-----|
|-----------------------------------------|
|-----------------------------------------|
|-----------------------------------------|


   S  S S S  S  S S S  S  S S S  S  S S S
|------------------------------------------||
|-----------------------------------------o||
|------------------------------------------||
|--5--5-5-5--5--5-5-5--5--5-5-5--5--5-5-5--||
|-----------------------------------------o||
|--3--3-3-3--3--3-3-3--3--3-3-3--3--3-3-3--||
|
|  S  S E    S  S E    S  S E    S  S E
|-10-10-----10-10-----10-10-----10-10------||
|-----------------------------------------o||
|--7--7------7--7------7--7------7--7------||
|------------------------------------------||
|-----------------------------------------o||
|------------------------------------------||
|
|  S  S E    S  S E    S  S E    S  S E
|-15-15-----15-15-----15-15-----15-15------||
|-----------------------------------------o||
|-12-12-----12-12-----12-12-----12-12------||
|------------------------------------------||
|-----------------------------------------o||
|------------------------------------------||


 Fade out
  2.
   S  S S S  S  S S S  S  S S S  S  S S S
|-----------------------------------------|
|-----------------------------------------|
|-----------------------------------------|
|--6--6-6-6--6--6-6-6--6--6-6-6--6--6-6-6-|
|-----------------------------------------|
|--4--4-4-4--4--4-4-4--4--4-4-4--4--4-4-4-|
|
|  S  S E    S  S E    S  S E    S  S E
|-11-11-----11-11-----11-11-----11-11-----|
|-----------------------------------------|
|--8--8------8--8------8--8------8--8-----|
|-----------------------------------------|
|-----------------------------------------|
|-----------------------------------------|
|
|  S  S E    S  S E    S  S E    S  S E
|-16-16-----16-16-----16-16-----16-16-----|
|-----------------------------------------|
|-13-13-----13-13-----13-13-----13-13-----|
|-----------------------------------------|
|-----------------------------------------|
|-----------------------------------------|


   S  S S S  S  S S S  S  S S S  S  S S S
|-----------------------------------------*|
|-----------------------------------------*|
|-----------------------------------------*|
|--5--5-5-5--5--5-5-5--5--5-5-5--5--5-5-5-*|
|-----------------------------------------*|
|--3--3-3-3--3--3-3-3--3--3-3-3--3--3-3-3-*|
|
|  S  S E    S  S E    S  S E    S  S E
|-10-10-----10-10-----10-10-----10-10-----*|
|-----------------------------------------*|
|--7--7------7--7------7--7------7--7-----*|
|-----------------------------------------*|
|-----------------------------------------*|
|-----------------------------------------*|
|
|  S  S E    S  S E    S  S E    S  S E
|-15-15-----15-15-----15-15-----15-15-----*|
|-----------------------------------------*|
|-12-12-----12-12-----12-12-----12-12-----*|
|-----------------------------------------*|
|-----------------------------------------*|
|-----------------------------------------*|



Duration Legend
---------------
W - whole; H - half; Q - quarter; E - 8th; S - 16th; T - 32nd; X - 64th; a - acciaccatura
+ - note tied to previous; . - note dotted; .. - note double dotted
Uncapitalized letters represent notes that are staccato (1/2 duration)
Irregular groupings are notated above the duration line
Duration letters will always appear directly above the note/fret number it represents the
duration for.  Duration letters with no fret number below them represent rests.  Multi-
bar rests are notated in the form Wxn, where n is the number of bars to rest for.  Low
melody durations appear below the staff

Tablature Legend
----------------
 h   - hammer-on
 p   - pull-off
 b   - bend
 pb  - pre-bend
 r   - bend release (if no number after the r, then release immediately)
 /\  - slide into or out of (from/to "nowhere")
 s   - legato slide
 S   - shift slide
 - natural harmonic
[n]  - artificial harmonic
n(n) - tapped harmonic
 ~   - vibrato
 tr  - trill
 T   - tap
 TP  - trem. picking
 PM  - palm muting
\n/  - tremolo bar dip; n = amount to dip
 \n  - tremolo bar down
 n/  - tremolo bar up
/n\  - tremolo bar inverted dip
 =   - hold bend; also acts as connecting device for hammers/pulls
 <> - volume swell (louder/softer)
 x   - on rhythm slash represents muted slash
 o   - on rhythm slash represents single note slash

Misc Legend
-----------
 |  - bar
||  - double bar
||o - repeat start
o|| - repeat end
*|  - double bar (ending)
 :  - bar (freetime)
 $  - Segno
 &  - Coda
Tempo markers -  = BPM(8/16=s8/s16), where s8 = swing 8ths, s16 = swing 16ths

Добавлено: 17.06.2013
Другие материалы по этой песне:
  • Аккорды и текст

Страница создана 17.06.2013
http://primanota.ru/white-zombie/electric-head-pt2-chords.htm
Привет, Гость.
Предлагаем пройти революционный курс по гитаре.
Подарок от PrimaNota.Ru, забирай!