PrimaNota.ru - самый крупный в мире бесплатный архив песенных текстов, аккордов, табулатур и нот


White Wizzard - Over The Top - таба, бас-таба, видео

Регистрация Запомнить меня
Войти через:  Facebook Google Twitter Vk Yandex Mail.ru

White Wizzard - Over The Top - таба, бас-таба, видео

Печатать
Просмотров: 211
This is the first White Wizzard tab on ultimate-guitar.com!

Over The Top by White Wizzard, from their album Over The Top, February 8, 2010.

Verse - Play 4X
E-------------------------------------------------------------------|
B---------------------------------------8-----8--8--8>--8-8---------|
G-7h9-9-9-9-----9--9--9>--9-9---7h9-9-9-9-----9--9--9>--9-9---------|
D-7h9-9-9-9-----9--9--9>--9-9---7h9-9-9-9-----9--9--9>--9-9---------|
A-5h7-7-7-7-----7--7--7>--7-7---5h7-7-7-7-----7--7--7>--7-7---------|
E-------------------------------------------------------------------|

E-------------------------------------------------------------------|
B-------------------------------------------------------------------|
G-5h7-7-7-7-----7--7--7>--7-7--5>------4>------7>------5>-----------|
D-5h7-7-7-7-----7--7--7>--7-7--5>------4>------7>------5>----5-3-2--|
A-3h5-5-5-5-----5--5--5>--5-5--3>------2>------5>------3>----------3|
E-------------------------------------------------------------------|

Verse 2 (Pre-Chorus) 0:38 - Guitar 2 joins on 9th
Play 16X       OR     Play 8X and play 8X
E----------------------------| E----------------------------|
B-13---13p12p10-13p12p10-----| B-17---17p15p13-17p15p13-----|
G----------------------------| G----------------------------|
D----------------------------| D----------------------------|
A----------------------------| A----------------------------|
E----------------------------| E----------------------------|

Chorus 0:56 - Play Twice
E-------------------------------------------------------------------|
B-------------------------------------------------------------------|
G-9-9-9-9\----------------------------------------------------------|
D-9-9-9-9\--------------------------10>-10101010109>--9-9-9-9-9-----|
A-7-7-7-7\---------------7-9-10-9-7-10>-10101010109>--9-9-9-9-9-----|
E----------------------10-----------8>--8-8-8-8-8-7>--7-7-7-7-7-----|

Chorus 1:06
E-------------------------------------------------------------------|
B-------------------------------------------------------------------|
G-------------------------------------------------------------------|
D-2>--0-2-3-5-3-2-2>--0-2-3-5-3-2-10>--------------10>--------------|
A-2>--------------2>--------------10>-10-9-7---7-9-10>-10-9-7---7-9-|
E-0>--------------0>--------------8>---------10----8>---------10----|

E-------------------------------------------------------------------|
B-------------------------------------------------------------------|
G-------------------------------------------------------------------|
D-2>--0-2-3-5-3-2-2>--0-2-3-5-3-2-10101010101010101212121212121212--|
A-2>--------------2>--------------10101010101010101212121212121212--|
E-0>--------------0>--------------8-8-8-8-8-8-8-8-1010101010101010--|

Solo 1:16
E-------------------------------------------------------------------|
B----------------------------------7---5---3---5-7-8----------------|
G------------------------------7-----------------------5---7--------|
D-9>--------9>--10>-12>----------------------------------------7>---|
A-------------------------------------------------------------------|
E-------------------------------------------------------------------|

Solo 1:25 - Play 6X
E-17-15-15-15-19-15-15-15-20-15-15-15-19-15-15-15-|
B-------------------------------------------------|
G-------------------------------------------------|
D-------------------------------------------------|
A-------------------------------------------------|
E-------------------------------------------------|

Solo End 1:31
E-17-19-15-17-14-15-12-10-12/---------------------|
B-------------------------------------------------|
G-------------------------------------------------|
D-------------------------------------------------|
A-------------------------------------------------|
E-------------------------------------------------|

Verse - 1:34

Verse (Pre-Chorus)- 1:52

Bridge - 2:29
E----------------------------------------------------------------|
B----------------------------------------------------------------|
G-----X-X----------------------------X-X-----------------5-------|
D-2---X-X-------------------------2--X-X-----------------5---6---|
A-2---X-X-5-7-0-5-7-0-5-7-5-7-8>--2--X-X-5-7-0-5-7-0-5-7-3---6---|
E-0-------------------------------0--------------------------4---|

E----------------------------------------------------------------|
B----------------------------------------------------------------|
G-----X-X----------------------------X-X---------4---------------|
D-2---X-X-------------------------2--X-X-----5-7---7-5-----------|
A-2---X-X-5-7-0-5-7-0-5-7-5-7-8>--2--X-X-5-7-----------8-7-7-7\--|
E-0-------------------------------0------------------------------|

Solo 2 - 2:39
E-------------------------------------------------------------------|
B--------------------------------------------8-------8--------------|
G-9--12--7--12--9-12-7--12--6--12--6-12-5p4-----4h5-----4-3-3h4--9--|
D-------------------------------------------------------------------|
A-------------------------------------------------------------------|
E-------------------------------------------------------------------|

E----------^^------|   That's all I could tab for solo 2.
B-13-13-13-18---13-|
G------------------|
D------------------|
A------------------|
E------------------|

Bridge - 3:06 - Play Riff 1 Three times, Play Riff 2 Twice.

Riff 1
E----------------------------------------------------------------|
B----------------------------------------------------------------|
G----------------------------------------------------------------|
D----------------------------------------------------------------|
A-7-0-0-8-0-0-7-0-0-5-0-0-3-2-7-0-0-8-0-0-10-0-0-12-0-0-10-0-8-0-|
E----------------------------------------------------------------|

E--------------------------------------------------------------------|
B--------------------------------------------------------------------|
G--------------------------------------------------------------------|
D--------------------------------------------------------------------|
A-7-0-0-8-0-0-7-0-0-5-0-0-3-0-2-0-7-0-0-8-0-0-10-0-0-12-0-0-10-0-8-0-|
E--------------------------------------------------------------------|

Riff 2
E------------------------------------------------------------------|
B------------------------------------------------------------------|
G------------------------------------------------------------------|
D-7-0-0-8-0-0-7-0-0-5-0-0-3-0-2-0-7-0-0-8-0-0-10-0-0-8-0-0-7-0-5-0-|
A------------------------------------------------------------------|
E------------------------------------------------------------------|

E------------------------------------------------------------------|
B------------------------------------------------------------------|
G------------------------------------------------------------------|
D-7-0-0-8-0-0-7-0-0-5-0-0-3-0-2-0-7-0-0-8-0-0-10-0-0-8-0-0-7-0-5-0-|
A------------------------------------------------------------------|
E------------------------------------------------------------------|

Solo 3 - 3:53
E-19---------19-20-19--20-19-17-17--16--14-17--16--14-19--17--15--15--17--19-|
B----------------------------------------------------------------------------|
G-----16>--------------------------------------------------------------------|
D----------------------------------------------------------------------------|
A----------------------------------------------------------------------------|
E----------------------------------------------------------------------------|

E-12>-----------------19p15-----------------------------------------|
B---------------15h17-----------------------------------------------|
G---------14h16------------16h17p16>------16h17-14h16-12h14-11h12\--|
D-------------------------------------------------------------------|
A-------------------------------------------------------------------|
E-------------------------------------------------------------------|
                                                                  ^^
E-------------------------------------12-0-0-14-0-0-15-0-0-17-0-0-19-|
B-7-0-0-8-0-0-10-0-0-12-0-0-13-0-15-0--------------------------------|
G--------------------------------------------------------------------|
D--------------------------------------------------------------------|
A--------------------------------------------------------------------|
E--------------------------------------------------------------------|

Verse 1 - 4:11

Verse 2 (Pre-Chorus) - 4:30

Chorus - 4:49

Outro - 5:07
E---------------|
B---------------|
G-9-9-9-9/------|
D-9-9-9-9/------|
A-7-7-7-7/------|
E---------------|


There you go. A great song by a spectacular band. I'm glad to see a new band bringing 
classic power metal. Have fun, and good luck!
Добавлено: 29.03.2012
Вам также может быть интересно:
Другие материалы по этой песне:
  • Аккорды и текст

Страница создана 04.03.2012
http://primanota.ru/white-wizzard/over-the-top-chords.htm
Привет, Гость.
Предлагаем пройти революционный курс по гитаре.
Подарок от PrimaNota.Ru, забирай!