PrimaNota.ru - самый крупный в мире бесплатный архив песенных текстов, аккордов, табулатур и нот


White Stripes - St. James Infirmary Blues - аккорды и текст, таба, видео

Регистрация Запомнить меня
Войти через:  Facebook Google Twitter Vk Yandex Mail.ru

White Stripes - St. James Infirmary Blues - аккорды и текст, таба, видео

Печатать
Просмотров: 369
St. James Infirmary Blues
White Stripes
Standard Tuning EADGBe 


Intro: Am

Oh coco!


Verse 1: 

Am               E                Am                   F      E      E7
Well Folks, I'm goin' down to St. James Infirmary, to see my baby there 
Am        E               Am                         F         E        Am
She's stretched out on a long, white table, looks so good, so cold, so fair. 


Verse 2: 

Am           E           Am             F           E    E7
Let her go, let her go, god bless her, wherever she may be, 
Am        E          Am                          F                  E              Am
She will search this wide world over, but she'll never find another sweet man like me. 


Instrumental Break:

|-------------------------------------------|
|-------------------------------------------|
|-------------------------------------------|
|-----0-2~-0-----0-2~--------0-2~--0--------|
|-0-3---------3---------0-3-----------3-0~--|
|-------------------------------------------| 

|--------------------------------------------|
|--------------------------------------------|
|-----------------------2--0-----------------|
|-----0-2~-0-----0-2~---------2--0-----------|
|-0-3---------3---------------------3--2--0--|
|--------------------------------------------|


Verse 3: 

Am              E                 Am                       F         E               E7 
Take apart your bones and put 'em back together, tell your mama that you're somebody new
Am              E                  Am                                 F              E            Am
Feel the breeze blowin tell em all 'look out here it comes' now I can say whatever I feel like to you 


Verse 4: 

     Am      E               Am                 F      E              E7
Then give me 6 crap-shootin' pallbearers, let a chorus girl sing me a song
Am        E    Am                  F          E       Am
Put a red-hot jazz band, we raise Hallelujah as we go along


Instrumental Break 2:

|-------------------------------------------|
|-------------------------------------------|
|-------------------------------------------|
|-----0-2~-0-----0-2~--------0-2~--0--------|
|-0-3---------3---------0-3-----------3-0~--|
|-------------------------------------------| 

|--------------------------------------------|
|--------------------------------------------|
|-----------------------2--0-----------------|
|-----0-2~-0-----0-2~---------2--0-----------|
|-0-3---------3---------------------3--2--0--|
|--------------------------------------------|


Verse 5: 

Am                  E          Am                             F   E            E7           
Folks, now that you have heard my story, say boy, hand me another shot of that rye; 
Am       E       Am                     E   D          C     B      Am
If anyone should ask you, tell 'em I've got those St. James Infirmary blues.
Добавлено: 15.07.2015
Другие материалы по этой песне:

Страница создана 29.02.2012
http://primanota.ru/white-stripes/st-james-infirmary-blues-chords.htm
Привет, Гость.
Предлагаем пройти революционный курс по гитаре.
Подарок от PrimaNota.Ru, забирай!