PrimaNota.ru - самый крупный в мире бесплатный архив песенных текстов, аккордов, табулатур и нот


White Stripes - Im Slowly Turning Into You - текст песни, таба, видео

Регистрация Запомнить меня
Войти через:  Facebook Google Twitter Vk Yandex Mail.ru

White Stripes - Im Slowly Turning Into You - текст песни, таба, видео

Печатать
Просмотров: 528
Уроки эстрадного вокала в Санкт-Петербурге
Авторы музыки: Jack White
Авторы текста: Jack White
Tabbed by wilk3
Released on www.ultimate-guitar.com

Artist: The White Stripes
Title: I'm Slowly Turning Into You
Album: Icky Thump
================================================

Standard Tuning

E|------------|
B|------------|
G|------------|
D|-5r----3-3--| x 18 (clean)
A|-5r----3-3--|
E|-3r----1-1--|


E|-----------------------------------------------------|
B|-----------------------------------------------------|
G|------------7r---------7-5r---7/5--3---3-2-----------|
D|-5r----3/5--7r-------5-7-5r---7/5--3---3-2-----------| x6 (distortion)
A|-5r----3/5--5r-------5-5-3r---5/3--1---1-0-----------|
E|-3r----1/3-----------3-------------------------------|


E|------------|
B|------------|
G|------------|
D|-5r----3-3--| x 12 (distortion)
A|-5r----3-3--|
E|-3r----1-1--|


E|------------|
B|------------|
G|------------|
D|-5r----3-3--| x 5 (clean)
A|-5r----3-3--|
E|-3r----1-1--|


E|-------------------------------------------------------------------|
B|-------------3--6---------------3--------------------3--6----------|
G|---------3-5----------------3-5-----3------------3-5---------------|
D|-3-5-3-5------------3-5-3-5--------------3-5-3-5-----------3-5-3-5-|
A|-------------------------------------------------------------------|
E|-------------------------------------------------------------------|

------------------------------------------------|
--------------------------3-6-------------------|
3-5-5b3-3r-------------3-5----------------------|
--------------3-5-3-5---------------------------|
------------------------------------------------|
------------------------------------------------|


E|------------------------------------------------------5-5-3r------|
B|---------------------------------3--6-----3-6----3-6--------------|
G|-----------------------------3-5--------5------5------------------|
D|-3---3-3-3-4-5r------3-5-3-5--------------------------------------|
A|------------------------------------------------------------------|
E|------------------------------------------------------------------|

------10-8-------------------10-8----------------|
-----------11-10-11-10-8----------11-10-11-10-8r-|
-------------------------7r----------------------|
-------------------------------------------------|
-------------------------------------------------|
-------------------------------------------------|

E|-10-8---------------------------------5-5----|
B|------11-10-11-10-8r-----6-------6--------8--|
G|-----------------------5---7---5---7---------|
D|---------------------------------------------|
A|---------------------------------------------|
E|---------------------------------------------|


E|-----------------------------------------------------|
B|-----------------------------------------------------|
G|------------7r---------7-5r---7/5--3---3-2-----------|
D|-5r----3/5--7r-------5-7-5r---7/5--3---3-2-----------| x4 (distortion)
A|-5r----3/5--5r-------5-5-3r---5/3--1---1-0-----------|
E|-3r----1/3-----------3-------------------------------|
Добавлено: 18.06.2012
Другие материалы по этой песне:

Страница создана 07.04.2012
http://primanota.ru/white-stripes/im-slowly-turning-into-you-chords.htm
Привет, Гость.
Предлагаем пройти революционный курс по гитаре.
Подарок от PrimaNota.Ru, забирай!